  0
SECTION
  2
HEADER
  9
$ACADVER
  1
AC1015
  9
$ACADMAINTVER
 70
     6
  9
$DWGCODEPAGE
  3
ANSI_1252
  9
$INSBASE
 10
0.0
 20
0.0
 30
0.0
  9
$EXTMIN
 10
0.0
 20
0.0
 30
0.0
  9
$EXTMAX
 10
55.0
 20
35.0
 30
0.0
  9
$LIMMIN
 10
0.0
 20
0.0
  9
$LIMMAX
 10
55.0
 20
35.0
  9
$ORTHOMODE
 70
     0
  9
$REGENMODE
 70
     1
  9
$FILLMODE
 70
     1
  9
$QTEXTMODE
 70
     0
  9
$MIRRTEXT
 70
     1
  9
$LTSCALE
 40
1.0
  9
$ATTMODE
 70
     1
  9
$TEXTSIZE
 40
0.1666666667
  9
$TRACEWID
 40
0.05
  9
$TEXTSTYLE
  7
Standard
  9
$CLAYER
  8
0
  9
$CELTYPE
  6
ByLayer
  9
$CECOLOR
 62
   256
  9
$CELTSCALE
 40
1.0
  9
$DISPSILH
 70
     0
  9
$DIMSCALE
 40
1.0
  9
$DIMASZ
 40
0.09
  9
$DIMEXO
 40
0.05
  9
$DIMDLI
 40
0.38
  9
$DIMRND
 40
0.0
  9
$DIMDLE
 40
0.0
  9
$DIMEXE
 40
0.0625
  9
$DIMTP
 40
0.0
  9
$DIMTM
 40
0.0
  9
$DIMTXT
 40
0.1666666667
  9
$DIMCEN
 40
0.09
  9
$DIMTSZ
 40
0.0
  9
$DIMTOL
 70
     0
  9
$DIMLIM
 70
     0
  9
$DIMTIH
 70
     1
  9
$DIMTOH
 70
     1
  9
$DIMSE1
 70
     0
  9
$DIMSE2
 70
     0
  9
$DIMTAD
 70
     0
  9
$DIMZIN
 70
     0
  9
$DIMBLK
  1

  9
$DIMASO
 70
     1
  9
$DIMSHO
 70
     1
  9
$DIMPOST
  1

  9
$DIMAPOST
  1

  9
$DIMALT
 70
     0
  9
$DIMALTD
 70
     2
  9
$DIMALTF
 40
25.4
  9
$DIMLFAC
 40
24.0
  9
$DIMTOFL
 70
     0
  9
$DIMTVP
 40
0.0
  9
$DIMTIX
 70
     0
  9
$DIMSOXD
 70
     0
  9
$DIMSAH
 70
     0
  9
$DIMBLK1
  1

  9
$DIMBLK2
  1

  9
$DIMSTYLE
  2
Standard
  9
$DIMCLRD
 70
     0
  9
$DIMCLRE
 70
     0
  9
$DIMCLRT
 70
     0
  9
$DIMTFAC
 40
1.0
  9
$DIMGAP
 40
0.06
  9
$DIMJUST
 70
     0
  9
$DIMSD1
 70
     0
  9
$DIMSD2
 70
     0
  9
$DIMTOLJ
 70
     1
  9
$DIMTZIN
 70
     0
  9
$DIMALTZ
 70
     0
  9
$DIMALTTZ
 70
     0
  9
$DIMUPT
 70
     0
  9
$DIMDEC
 70
     2
  9
$DIMTDEC
 70
     2
  9
$DIMALTU
 70
     2
  9
$DIMALTTD
 70
     2
  9
$DIMTXSTY
  7
Standard
  9
$DIMAUNIT
 70
     0
  9
$DIMADEC
 70
     0
  9
$DIMALTRND
 40
0.0
  9
$DIMAZIN
 70
     0
  9
$DIMDSEP
 70
    46
  9
$DIMATFIT
 70
     3
  9
$DIMFRAC
 70
     0
  9
$DIMLDRBLK
  1

  9
$DIMLUNIT
 70
     2
  9
$DIMLWD
 70
    -2
  9
$DIMLWE
 70
    -2
  9
$DIMTMOVE
 70
     0
  9
$LUNITS
 70
     2
  9
$LUPREC
 70
     2
  9
$SKETCHINC
 40
0.1
  9
$FILLETRAD
 40
0.5
  9
$AUNITS
 70
     0
  9
$AUPREC
 70
     0
  9
$MENU
  1
.
  9
$ELEVATION
 40
0.0
  9
$PELEVATION
 40
0.0
  9
$THICKNESS
 40
0.0
  9
$LIMCHECK
 70
     0
  9
$CHAMFERA
 40
0.5
  9
$CHAMFERB
 40
0.5
  9
$CHAMFERC
 40
1.0
  9
$CHAMFERD
 40
0.0
  9
$SKPOLY
 70
     0
  9
$TDCREATE
 40
2455464.414184248
  9
$TDUCREATE
 40
2455464.622517581
  9
$TDUPDATE
 40
2455464.414184259
  9
$TDUUPDATE
 40
2455464.622517593
  9
$TDINDWG
 40
0.0000000116
  9
$TDUSRTIMER
 40
0.0000000116
  9
$USRTIMER
 70
     1
  9
$ANGBASE
 50
0.0
  9
$ANGDIR
 70
     0
  9
$PDMODE
 70
     0
  9
$PDSIZE
 40
-1.0
  9
$PLINEWID
 40
0.0
  9
$SPLFRAME
 70
     0
  9
$SPLINETYPE
 70
     6
  9
$SPLINESEGS
 70
     8
  9
$HANDSEED
  5
1DC
  9
$SURFTAB1
 70
     6
  9
$SURFTAB2
 70
     6
  9
$SURFTYPE
 70
     6
  9
$SURFU
 70
     6
  9
$SURFV
 70
     6
  9
$UCSBASE
  2

  9
$UCSNAME
  2

  9
$UCSORG
 10
0.0
 20
0.0
 30
0.0
  9
$UCSXDIR
 10
1.0
 20
0.0
 30
0.0
  9
$UCSYDIR
 10
0.0
 20
1.0
 30
0.0
  9
$UCSORTHOREF
  2

  9
$UCSORTHOVIEW
 70
     0
  9
$UCSORGTOP
 10
0.0
 20
0.0
 30
0.0
  9
$UCSORGBOTTOM
 10
0.0
 20
0.0
 30
0.0
  9
$UCSORGLEFT
 10
0.0
 20
0.0
 30
0.0
  9
$UCSORGRIGHT
 10
0.0
 20
0.0
 30
0.0
  9
$UCSORGFRONT
 10
0.0
 20
0.0
 30
0.0
  9
$UCSORGBACK
 10
0.0
 20
0.0
 30
0.0
  9
$PUCSBASE
  2

  9
$PUCSNAME
  2

  9
$PUCSORG
 10
0.0
 20
0.0
 30
0.0
  9
$PUCSXDIR
 10
1.0
 20
0.0
 30
0.0
  9
$PUCSYDIR
 10
0.0
 20
1.0
 30
0.0
  9
$PUCSORTHOREF
  2

  9
$PUCSORTHOVIEW
 70
     0
  9
$PUCSORGTOP
 10
0.0
 20
0.0
 30
0.0
  9
$PUCSORGBOTTOM
 10
0.0
 20
0.0
 30
0.0
  9
$PUCSORGLEFT
 10
0.0
 20
0.0
 30
0.0
  9
$PUCSORGRIGHT
 10
0.0
 20
0.0
 30
0.0
  9
$PUCSORGFRONT
 10
0.0
 20
0.0
 30
0.0
  9
$PUCSORGBACK
 10
0.0
 20
0.0
 30
0.0
  9
$USERI1
 70
     0
  9
$USERI2
 70
     0
  9
$USERI3
 70
     0
  9
$USERI4
 70
     0
  9
$USERI5
 70
     0
  9
$USERR1
 40
0.0
  9
$USERR2
 40
0.0
  9
$USERR3
 40
0.0
  9
$USERR4
 40
0.0
  9
$USERR5
 40
0.0
  9
$WORLDVIEW
 70
     1
  9
$SHADEDGE
 70
     3
  9
$SHADEDIF
 70
    70
  9
$TILEMODE
 70
     1
  9
$MAXACTVP
 70
    64
  9
$PINSBASE
 10
0.0
 20
0.0
 30
0.0
  9
$PLIMCHECK
 70
     0
  9
$PEXTMIN
 10
1.0000000000E+20
 20
1.0000000000E+20
 30
1.0000000000E+20
  9
$PEXTMAX
 10
-1.0000000000E+20
 20
-1.0000000000E+20
 30
-1.0000000000E+20
  9
$PLIMMIN
 10
0.0
 20
0.0
  9
$PLIMMAX
 10
12.0
 20
9.0
  9
$UNITMODE
 70
     0
  9
$VISRETAIN
 70
     1
  9
$PLINEGEN
 70
     0
  9
$PSLTSCALE
 70
     1
  9
$TREEDEPTH
 70
  3020
  9
$CMLSTYLE
  2
Standard
  9
$CMLJUST
 70
     0
  9
$CMLSCALE
 40
1.0
  9
$PROXYGRAPHICS
 70
     1
  9
$MEASUREMENT
 70
     0
  9
$CELWEIGHT
370
    -1
  9
$ENDCAPS
280
     0
  9
$JOINSTYLE
280
     0
  9
$LWDISPLAY
290
     1
  9
$INSUNITS
 70
     1
  9
$HYPERLINKBASE
  1

  9
$STYLESHEET
  1

  9
$XEDIT
290
     1
  9
$CEPSNTYPE
380
     0
  9
$PSTYLEMODE
290
     1
  9
$FINGERPRINTGUID
  2
{FD30B87B-19CC-4FFD-BB54-0C30AB5B6A0D}
  9
$VERSIONGUID
  2
{FAEB1C32-E019-11D5-929B-00C0DF256EC4}
  9
$EXTNAMES
290
     1
  9
$PSVPSCALE
 40
0.0
  9
$OLESTARTUP
290
     0
  0
ENDSEC
  0
SECTION
  2
CLASSES
  0
CLASS
  1
ACDBDICTIONARYWDFLT
  2
AcDbDictionaryWithDefault
  3
ObjectDBX Classes
 90
        0
280
     0
281
     0
  0
CLASS
  1
VISUALSTYLE
  2
AcDbVisualStyle
  3
ObjectDBX Classes
 90
     4095
280
     0
281
     0
  0
CLASS
  1
MATERIAL
  2
AcDbMaterial
  3
ObjectDBX Classes
 90
     1153
280
     0
281
     0
  0
CLASS
  1
SCALE
  2
AcDbScale
  3
ObjectDBX Classes
 90
     1153
280
     0
281
     0
  0
CLASS
  1
DICTIONARYVAR
  2
AcDbDictionaryVar
  3
ObjectDBX Classes
 90
        0
280
     0
281
     0
  0
CLASS
  1
ACDBPLACEHOLDER
  2
AcDbPlaceHolder
  3
ObjectDBX Classes
 90
        0
280
     0
281
     0
  0
CLASS
  1
LAYOUT
  2
AcDbLayout
  3
ObjectDBX Classes
 90
        0
280
     0
281
     0
  0
ENDSEC
  0
SECTION
  2
TABLES
  0
TABLE
  2
VPORT
  5
8
330
0
100
AcDbSymbolTable
 70
     1
  0
VPORT
  5
29
330
8
100
AcDbSymbolTableRecord
100
AcDbViewportTableRecord
  2
*Active
 70
     0
 10
0.0
 20
0.0
 11
1.0
 21
1.0
 12
27.5
 22
17.5
 13
0.0
 23
0.0
 14
0.5
 24
0.5
 15
0.5
 25
0.5
 16
0.0
 26
0.0
 36
1.0
 17
0.0
 27
0.0
 37
0.0
 40
35.0
 41
1.5714285714
 42
50.0
 43
0.0
 44
0.0
 50
0.0
 51
0.0
 71
     0
 72
  2000
 73
     1
 74
     3
 75
     0
 76
     0
 77
     0
 78
     0
281
     0
 65
     1
110
0.0
120
0.0
130
0.0
111
1.0
121
0.0
131
0.0
112
0.0
122
1.0
132
0.0
 79
     0
146
0.0
  0
ENDTAB
  0
TABLE
  2
LTYPE
  5
5
330
0
100
AcDbSymbolTable
 70
     6
  0
LTYPE
  5
14
330
5
100
AcDbSymbolTableRecord
100
AcDbLinetypeTableRecord
  2
ByBlock
 70
     0
  3

 72
    65
 73
     0
 40
0.0
  0
LTYPE
  5
15
330
5
100
AcDbSymbolTableRecord
100
AcDbLinetypeTableRecord
  2
ByLayer
 70
     0
  3

 72
    65
 73
     0
 40
0.0
  0
LTYPE
  5
16
330
5
100
AcDbSymbolTableRecord
100
AcDbLinetypeTableRecord
  2
Continuous
 70
     0
  3
Solid line
 72
    65
 73
     0
 40
0.0
  0
LTYPE
  5
3F
330
5
100
AcDbSymbolTableRecord
100
AcDbLinetypeTableRecord
  2
HIDDEN
 70
     0
  3
Hidden __ __ __ __ __ __ __ __ __ __ __ __ __ __
 72
    65
 73
     2
 40
0.075
 49
0.05
 74
     0
 49
-0.025
 74
     0
  0
LTYPE
  5
40
330
5
100
AcDbSymbolTableRecord
100
AcDbLinetypeTableRecord
  2
PHANTOM
 70
     0
  3
Phantom ______  __  __  ______  __  __  ______
 72
    65
 73
     6
 40
0.5
 49
0.25
 74
     0
 49
-0.05
 74
     0
 49
0.05
 74
     0
 49
-0.05
 74
     0
 49
0.05
 74
     0
 49
-0.05
 74
     0
  0
LTYPE
  5
41
330
5
100
AcDbSymbolTableRecord
100
AcDbLinetypeTableRecord
  2
CENTER
 70
     0
  3
Center ____ _ ____ _ ____ _ ____ _ ____ _ ____
 72
    65
 73
     4
 40
0.4
 49
0.25
 74
     0
 49
-0.05
 74
     0
 49
0.05
 74
     0
 49
-0.05
 74
     0
  0
LTYPE
  5
42
330
5
100
AcDbSymbolTableRecord
100
AcDbLinetypeTableRecord
  2
CENTERX2
 70
     0
  3
Center (2x) ________  __  ________  __  _____
 72
    65
 73
     4
 40
0.8
 49
0.5
 74
     0
 49
-0.1
 74
     0
 49
0.1
 74
     0
 49
-0.1
 74
     0
  0
LTYPE
  5
43
330
5
100
AcDbSymbolTableRecord
100
AcDbLinetypeTableRecord
  2
DOT2
 70
     0
  3
Dot (.5x) ........................................
 72
    65
 73
     2
 40
0.025
 49
0.0
 74
     0
 49
-0.025
 74
     0
  0
ENDTAB
  0
TABLE
  2
LAYER
  5
2
330
0
100
AcDbSymbolTable
 70
     2
  0
LAYER
  5
10
330
2
100
AcDbSymbolTableRecord
100
AcDbLayerTableRecord
  2
0
 70
     0
 62
     7
  6
Continuous
370
    -3
390
F
  0
LAYER
  5
44
330
2
100
AcDbSymbolTableRecord
100
AcDbLayerTableRecord
  2
FORMAT
 70
     0
 62
     7
  6
Continuous
370
    -3
390
F
  0
ENDTAB
  0
TABLE
  2
STYLE
  5
3
330
0
100
AcDbSymbolTable
 70
     3
  0
STYLE
  5
11
330
3
100
AcDbSymbolTableRecord
100
AcDbTextStyleTableRecord
  2
Standard
 70
     0
 40
0.0
 41
1.0
 50
0.0
 71
     0
 42
0.2
  3
txt
  4

  0
STYLE
  5
4B
330
3
100
AcDbSymbolTableRecord
100
AcDbTextStyleTableRecord
  2
SLDTEXTSTYLE0
 70
     0
 40
0.0
 41
0.96
 50
0.0
 71
     0
 42
0.2
  3
TXT
  4

  0
STYLE
  5
70
330
3
100
AcDbSymbolTableRecord
100
AcDbTextStyleTableRecord
  2
SLDTEXTSTYLE1
 70
     0
 40
0.0
 41
0.8833333333
 50
0.0
 71
     0
 42
0.2
  3
TXT
  4

  0
ENDTAB
  0
TABLE
  2
VIEW
  5
6
330
0
100
AcDbSymbolTable
 70
     0
  0
ENDTAB
  0
TABLE
  2
UCS
  5
7
330
0
100
AcDbSymbolTable
 70
     0
  0
ENDTAB
  0
TABLE
  2
APPID
  5
9
330
0
100
AcDbSymbolTable
 70
     1
  0
APPID
  5
12
330
9
100
AcDbSymbolTableRecord
100
AcDbRegAppTableRecord
  2
ACAD
 70
     0
  0
ENDTAB
  0
TABLE
  2
DIMSTYLE
  5
A
330
0
100
AcDbSymbolTable
 70
     1
100
AcDbDimStyleTable
  0
DIMSTYLE
105
27
330
A
100
AcDbSymbolTableRecord
100
AcDbDimStyleTableRecord
  2
Standard
 70
     0
340
11
  0
ENDTAB
  0
TABLE
  2
BLOCK_RECORD
  5
1
330
0
100
AcDbSymbolTable
 70
     3
  0
BLOCK_RECORD
  5
1F
330
1
100
AcDbSymbolTableRecord
100
AcDbBlockTableRecord
  2
*Model_Space
340
22
  0
BLOCK_RECORD
  5
1B
330
1
100
AcDbSymbolTableRecord
100
AcDbBlockTableRecord
  2
*Paper_Space
340
1E
  0
BLOCK_RECORD
  5
23
330
1
100
AcDbSymbolTableRecord
100
AcDbBlockTableRecord
  2
*Paper_Space0
340
26
  0
BLOCK_RECORD
  5
45
330
1
100
AcDbSymbolTableRecord
100
AcDbBlockTableRecord
  2
SW_NOTE_0
340
0
102
{BLKREFS
331
73
102
}
  0
BLOCK_RECORD
  5
48
330
1
100
AcDbSymbolTableRecord
100
AcDbBlockTableRecord
  2
SW_NOTE_0_1
340
0
102
{BLKREFS
331
72
102
}
  0
ENDTAB
  0
ENDSEC
  0
SECTION
  2
BLOCKS
  0
BLOCK
  5
20
330
1F
100
AcDbEntity
  8
0
100
AcDbBlockBegin
  2
*Model_Space
 70
     0
 10
0.0
 20
0.0
 30
0.0
  3
*Model_Space
  1

  0
ENDBLK
  5
21
330
1F
100
AcDbEntity
  8
0
100
AcDbBlockEnd
  0
BLOCK
  5
1C
330
1B
100
AcDbEntity
 67
     1
  8
0
100
AcDbBlockBegin
  2
*Paper_Space
 70
     0
 10
0.0
 20
0.0
 30
0.0
  3
*Paper_Space
  1

  0
ENDBLK
  5
1D
330
1B
100
AcDbEntity
 67
     1
  8
0
100
AcDbBlockEnd
  0
BLOCK
  5
24
330
23
100
AcDbEntity
  8
0
100
AcDbBlockBegin
  2
*Paper_Space0
 70
     0
 10
0.0
 20
0.0
 30
0.0
  3
*Paper_Space0
  1

  0
ENDBLK
  5
25
330
23
100
AcDbEntity
  8
0
100
AcDbBlockEnd
  0
BLOCK
  5
46
330
45
100
AcDbEntity
  8
0
100
AcDbBlockBegin
  2
SW_NOTE_0
 70
     0
 10
0.0
 20
0.0
 30
0.0
  3
SW_NOTE_0
  1

  0
INSERT
  5
72
330
45
100
AcDbEntity
  8
FORMAT
 62
     7
100
AcDbBlockReference
  2
SW_NOTE_0_1
 10
6.1082780987
 20
1.6757404968
 30
0.0
  0
ENDBLK
  5
47
330
45
100
AcDbEntity
  8
0
100
AcDbBlockEnd
  0
BLOCK
  5
49
330
48
100
AcDbEntity
  8
0
100
AcDbBlockBegin
  2
SW_NOTE_0_1
 70
     0
 10
0.0
 20
0.0
 30
0.0
  3
SW_NOTE_0_1
  1

  0
MTEXT
  5
6E
330
48
100
AcDbEntity
  8
FORMAT
 62
     0
100
AcDbMText
 10
0.0
 20
1.7456125643
 30
0.0
 40
1.3541666667
 41
0.0
 71
     1
 72
     1
  1
Titus
  7
SLDTEXTSTYLE0
 73
     1
 44
1.0
  0
MTEXT
  5
6F
330
48
100
AcDbEntity
  8
FORMAT
 62
     0
100
AcDbMText
 10
0.0
 20
-1.8654984665
 30
0.0
 40
1.3541666667
 41
0.0
 71
     1
 72
     1
  1
MDV
  7
SLDTEXTSTYLE0
 73
     1
 44
1.0
  0
MTEXT
  5
71
330
48
100
AcDbEntity
  8
FORMAT
 62
     0
100
AcDbMText
 10
0.0
 20
-5.4766094973
 30
0.0
 40
1.3541666667
 41
0.0
 71
     1
 72
     1
  1
Size 4
  7
SLDTEXTSTYLE1
 73
     1
 44
1.0
  0
ENDBLK
  5
4A
330
48
100
AcDbEntity
  8
0
100
AcDbBlockEnd
  0
ENDSEC
  0
SECTION
  2
ENTITIES
  0
INSERT
  5
73
330
1F
100
AcDbEntity
  8
FORMAT
100
AcDbBlockReference
  2
SW_NOTE_0
 10
13.9225256153
 20
19.8187829689
 30
0.0
  0
ARC
  5
74
330
1F
100
AcDbEntity
  8
0
  6
Continuous
 62
     7
370
    30
100
AcDbCircle
 10
4.8389109066
 20
16.3647735253
 30
0.0
 40
0.1249999999999993
100
AcDbArc
 50
115.0873830763
 51
180.0
  0
LINE
  5
75
330
1F
100
AcDbEntity
  8
0
  6
Continuous
 62
     7
370
    30
100
AcDbLine
 10
4.7139109066
 20
16.3647735253
 30
0.0
 11
1.5579109066
 21
16.3647735253
 31
0.0
  0
ARC
  5
76
330
1F
100
AcDbEntity
  8
0
  6
Continuous
 62
     7
370
    30
100
AcDbCircle
 10
4.8389109066
 20
25.2387735253
 30
0.0
 40
0.1249999999999999
100
AcDbArc
 50
115.0873830763
 51
180.0
  0
LINE
  5
77
330
1F
100
AcDbEntity
  8
0
  6
Continuous
 62
     7
370
    30
100
AcDbLine
 10
4.7139109066
 20
25.2387735253
 30
0.0
 11
1.5579109066
 21
25.2387735253
 31
0.0
  0
ARC
  5
78
330
1F
100
AcDbEntity
  8
0
  6
Continuous
 62
     7
370
    30
100
AcDbCircle
 10
4.1964646656
 20
11.4454495631
 30
0.0
 40
0.1117969913825728
100
AcDbArc
 50
281.0597172183
 51
314.6344510625
  0
LINE
  5
79
330
1F
100
AcDbEntity
  8
0
  6
Continuous
 62
     7
370
    30
100
AcDbLine
 10
4.2179109066
 20
11.3119635894
 30
0.0
 11
4.2179109066
 21
11.3357288903
 31
0.0
  0
LINE
  5
7A
330
1F
100
AcDbEntity
  8
0
  6
Continuous
 62
     7
370
    30
100
AcDbLine
 10
4.2379109066
 20
13.221365937
 30
0.0
 11
4.3654020499
 21
13.1682996385
 31
0.0
  0
LINE
  5
7B
330
1F
100
AcDbEntity
  8
0
  6
Continuous
 62
     7
370
    30
100
AcDbLine
 10
4.2379109066
 20
12.8427153414
 30
0.0
 11
4.2379109066
 21
13.221365937
 31
0.0
  0
LINE
  5
7C
330
1F
100
AcDbEntity
  8
0
  6
Continuous
 62
     7
370
    30
100
AcDbLine
 10
4.2379109066
 20
13.6734862001
 30
0.0
 11
4.3891145683
 21
13.7364224828
 31
0.0
  0
LINE
  5
7D
330
1F
100
AcDbEntity
  8
0
  6
Continuous
 62
     7
370
    30
100
AcDbLine
 10
4.2379109066
 20
14.0126867996
 30
0.0
 11
4.2379109066
 21
13.6734862001
 31
0.0
  0
LINE
  5
7E
330
1F
100
AcDbEntity
  8
0
  6
Continuous
 62
     7
370
    30
100
AcDbLine
 10
4.2179109066
 20
13.2282229664
 30
0.0
 11
4.2379109066
 21
13.2282229664
 31
0.0
  0
LINE
  5
7F
330
1F
100
AcDbEntity
  8
0
  6
Continuous
 62
     7
370
    30
100
AcDbLine
 10
4.2179109066
 20
13.6666291707
 30
0.0
 11
4.2379109066
 21
13.6666291707
 31
0.0
  0
LINE
  5
80
330
1F
100
AcDbEntity
  8
0
  6
Continuous
 62
     7
370
    30
100
AcDbLine
 10
4.2179109066
 20
11.3392644242
 30
0.0
 11
4.2179109066
 21
11.3357288903
 31
0.0
  0
LINE
  5
81
330
1F
100
AcDbEntity
  8
0
  6
Continuous
 62
     7
370
    30
100
AcDbLine
 10
4.2379109066
 20
13.5928680001
 30
0.0
 11
4.2379109066
 21
13.6734862001
 31
0.0
  0
LINE
  5
82
330
1F
100
AcDbEntity
  8
0
  6
Continuous
 62
     7
370
    30
100
AcDbLine
 10
4.2379109066
 20
13.221365937
 30
0.0
 11
4.2379109066
 21
13.2630581357
 31
0.0
  0
LINE
  5
83
330
1F
100
AcDbEntity
  8
0
  6
Continuous
 62
     7
370
    30
100
AcDbLine
 10
4.2379109066
 20
22.0550608505
 30
0.0
 11
4.3908148619
 21
21.9914168457
 31
0.0
  0
LINE
  5
84
330
1F
100
AcDbEntity
  8
0
  6
Continuous
 62
     7
370
    30
100
AcDbLine
 10
4.2379109066
 20
21.7167153414
 30
0.0
 11
4.2379109066
 21
22.0550608505
 31
0.0
  0
ARC
  5
85
330
1F
100
AcDbEntity
  8
0
  6
Continuous
 62
     7
370
    30
100
AcDbCircle
 10
4.1963171605
 20
24.2827596096
 30
0.0
 40
0.1121569188229985
100
AcDbArc
 50
45.9044555823
 51
78.8994400822
  0
LINE
  5
86
330
1F
100
AcDbEntity
  8
0
  6
Continuous
 62
     7
370
    30
100
AcDbLine
 10
4.2179109066
 20
24.4165834612
 30
0.0
 11
4.2179109066
 21
24.3928181602
 31
0.0
  0
LINE
  5
87
330
1F
100
AcDbEntity
  8
0
  6
Continuous
 62
     7
370
    30
100
AcDbLine
 10
4.2379109066
 20
22.5071811136
 30
0.0
 11
4.3696923941
 21
22.5620332042
 31
0.0
  0
LINE
  5
88
330
1F
100
AcDbEntity
  8
0
  6
Continuous
 62
     7
370
    30
100
AcDbLine
 10
4.2379109066
 20
22.8866867996
 30
0.0
 11
4.2379109066
 21
22.5071811136
 31
0.0
  0
LINE
  5
89
330
1F
100
AcDbEntity
  8
0
  6
Continuous
 62
     7
370
    30
100
AcDbLine
 10
4.2179109066
 20
22.0619178798
 30
0.0
 11
4.2379109066
 21
22.0619178798
 31
0.0
  0
LINE
  5
8A
330
1F
100
AcDbEntity
  8
0
  6
Continuous
 62
     7
370
    30
100
AcDbLine
 10
4.2179109066
 20
22.5003240842
 30
0.0
 11
4.2379109066
 21
22.5003240842
 31
0.0
  0
LINE
  5
8B
330
1F
100
AcDbEntity
  8
0
  6
Continuous
 62
     7
370
    30
100
AcDbLine
 10
4.2179109066
 20
24.3892826263
 30
0.0
 11
4.2179109066
 21
24.3928181602
 31
0.0
  0
LINE
  5
8C
330
1F
100
AcDbEntity
  8
0
  6
Continuous
 62
     7
370
    30
100
AcDbLine
 10
4.2379109066
 20
22.4668680001
 30
0.0
 11
4.2379109066
 21
22.5071811136
 31
0.0
  0
LINE
  5
8D
330
1F
100
AcDbEntity
  8
0
  6
Continuous
 62
     7
370
    30
100
AcDbLine
 10
4.2379109066
 20
22.0550608505
 30
0.0
 11
4.2379109066
 21
22.1370581357
 31
0.0
  0
ARC
  5
8E
330
1F
100
AcDbEntity
  8
0
  6
Continuous
 62
     7
370
    30
100
AcDbCircle
 10
4.1863623677
 20
11.4385794519
 30
0.0
 40
0.1044925568234183
100
AcDbArc
 50
214.001451319
 51
259.8292903473
  0
LINE
  5
8F
330
1F
100
AcDbEntity
  8
0
  6
Continuous
 62
     7
370
    30
100
AcDbLine
 10
4.1679109066
 20
11.3357288903
 30
0.0
 11
4.1679109066
 21
11.3119635894
 31
0.0
  0
LINE
  5
90
330
1F
100
AcDbEntity
  8
0
  6
Continuous
 62
     7
370
    30
100
AcDbLine
 10
3.9923603589
 20
13.1566661075
 30
0.0
 11
4.1479109066
 21
13.2219479311
 31
0.0
  0
LINE
  5
91
330
1F
100
AcDbEntity
  8
0
  6
Continuous
 62
     7
370
    30
100
AcDbLine
 10
4.1479109066
 20
12.8392105278
 30
0.0
 11
4.1479109066
 21
13.2219479311
 31
0.0
  0
LWPOLYLINE
  5
92
330
1F
100
AcDbEntity
  8
0
  6
Continuous
 62
     7
370
    30
100
AcDbPolyline
 90
        3
 70
   128
 43
0.0
 10
4.0990374691
 20
15.5135103924
 10
4.096360915
 20
15.5082974842
 10
4.0909109066
 20
15.4838935984
  0
LINE
  5
93
330
1F
100
AcDbEntity
  8
0
  6
Continuous
 62
     7
370
    30
100
AcDbLine
 10
3.9789339798
 20
13.7438208443
 30
0.0
 11
4.1479109066
 21
13.6729042059
 31
0.0
  0
LINE
  5
94
330
1F
100
AcDbEntity
  8
0
  6
Continuous
 62
     7
370
    30
100
AcDbLine
 10
4.1479109066
 20
14.0172926842
 30
0.0
 11
4.1479109066
 21
13.6729042059
 31
0.0
  0
LINE
  5
95
330
1F
100
AcDbEntity
  8
0
  6
Continuous
 62
     7
370
    30
100
AcDbLine
 10
4.1679109066
 20
11.3392644242
 30
0.0
 11
4.1679109066
 21
11.3357288903
 31
0.0
  0
LINE
  5
96
330
1F
100
AcDbEntity
  8
0
  6
Continuous
 62
     7
370
    30
100
AcDbLine
 10
4.1479109066
 20
13.2669915619
 30
0.0
 11
4.1479109066
 21
13.2219479311
 31
0.0
  0
LINE
  5
97
330
1F
100
AcDbEntity
  8
0
  6
Continuous
 62
     7
370
    30
100
AcDbLine
 10
4.1479109066
 20
13.6729042059
 30
0.0
 11
4.1479109066
 21
13.5892203832
 31
0.0
  0
LINE
  5
98
330
1F
100
AcDbEntity
  8
0
  6
Continuous
 62
     7
370
    30
100
AcDbLine
 10
4.0955589722
 20
20.2220751199
 30
0.0
 11
4.0909109066
 21
20.2446534522
 31
0.0
  0
LINE
  5
99
330
1F
100
AcDbEntity
  8
0
  6
Continuous
 62
     7
370
    30
100
AcDbLine
 10
3.9789339798
 20
21.9847262063
 30
0.0
 11
4.1479109066
 21
22.0556428446
 31
0.0
  0
LINE
  5
9A
330
1F
100
AcDbEntity
  8
0
  6
Continuous
 62
     7
370
    30
100
AcDbLine
 10
4.1479109066
 20
21.7132105278
 30
0.0
 11
4.1479109066
 21
22.0556428446
 31
0.0
  0
ARC
  5
9B
330
1F
100
AcDbEntity
  8
0
  6
Continuous
 62
     7
370
    30
100
AcDbCircle
 10
4.1863729959
 20
24.2899431825
 30
0.0
 40
0.1045184662432941
100
AcDbArc
 50
100.1740808472
 51
145.9564197844
  0
LINE
  5
9C
330
1F
100
AcDbEntity
  8
0
  6
Continuous
 62
     7
370
    30
100
AcDbLine
 10
4.1679109066
 20
24.3928181602
 30
0.0
 11
4.1679109066
 21
24.4165834612
 31
0.0
  0
LINE
  5
9D
330
1F
100
AcDbEntity
  8
0
  6
Continuous
 62
     7
370
    30
100
AcDbLine
 10
3.9928571264
 20
22.5716724585
 30
0.0
 11
4.1479109066
 21
22.5065991194
 31
0.0
  0
LINE
  5
9E
330
1F
100
AcDbEntity
  8
0
  6
Continuous
 62
     7
370
    30
100
AcDbLine
 10
4.1479109066
 20
22.8912926842
 30
0.0
 11
4.1479109066
 21
22.5065991194
 31
0.0
  0
LINE
  5
9F
330
1F
100
AcDbEntity
  8
0
  6
Continuous
 62
     7
370
    30
100
AcDbLine
 10
4.1679109066
 20
24.3892826263
 30
0.0
 11
4.1679109066
 21
24.3928181602
 31
0.0
  0
LINE
  5
A0
330
1F
100
AcDbEntity
  8
0
  6
Continuous
 62
     7
370
    30
100
AcDbLine
 10
4.1479109066
 20
22.1409915619
 30
0.0
 11
4.1479109066
 21
22.0556428446
 31
0.0
  0
LINE
  5
A1
330
1F
100
AcDbEntity
  8
0
  6
Continuous
 62
     7
370
    30
100
AcDbLine
 10
4.1479109066
 20
22.5065991194
 30
0.0
 11
4.1479109066
 21
22.4632203832
 31
0.0
  0
ARC
  5
A2
330
1F
100
AcDbEntity
  8
0
  6
Continuous
 62
     7
370
    30
100
AcDbCircle
 10
4.1768152134
 20
11.4315105679
 30
0.0
 40
0.0615134414807831
100
AcDbArc
 50
209.680780668
 51
275.6870764324
  0
ARC
  5
A3
330
1F
100
AcDbEntity
  8
0
  6
Continuous
 62
     7
370
    30
100
AcDbCircle
 10
4.1891507257
 20
11.4310149762
 30
0.0
 40
0.0610348749624572
100
AcDbArc
 50
264.1321904493
 51
331.7304554555
  0
ARC
  5
A4
330
1F
100
AcDbEntity
  8
0
  6
Continuous
 62
     7
370
    30
100
AcDbCircle
 10
4.1965212411
 20
11.447844121
 30
0.0
 40
0.1092047116184369
100
AcDbArc
 50
281.2954112124
 51
315.1088935916
  0
LINE
  5
A5
330
1F
100
AcDbEntity
  8
0
  6
Continuous
 62
     7
370
    30
100
AcDbLine
 10
4.2179109066
 20
11.3392644242
 30
0.0
 11
4.2179109066
 21
11.3407546666
 31
0.0
  0
ARC
  5
A6
330
1F
100
AcDbEntity
  8
0
  6
Continuous
 62
     7
370
    30
100
AcDbCircle
 10
4.1829109066
 20
13.1870435719
 30
0.0
 40
0.0420640852737966
100
AcDbArc
 50
67.904927047
 51
112.095072953
  0
LWPOLYLINE
  5
A7
330
1F
100
AcDbEntity
  8
0
  6
Continuous
 62
     7
370
    30
100
AcDbPolyline
 90
       17
 70
   128
 43
0.0
 10
4.1829109066
 20
15.4377211994
 10
4.1598360015
 20
15.4409667375
 10
4.1402740415
 20
15.450209248
 10
4.1272031577
 20
15.4640416426
 10
4.1226132738
 20
15.4803580645
 10
4.1272031577
 20
15.4966744863
 10
4.1402740415
 20
15.5105068809
 10
4.1598360015
 20
15.5197493914
 10
4.1829109066
 20
15.5229949295
 10
4.2059858117
 20
15.5197493914
 10
4.2255477716
 20
15.5105068809
 10
4.2386186554
 20
15.4966744863
 10
4.2432085394
 20
15.4803580645
 10
4.2386186554
 20
15.4640416426
 10
4.2255477716
 20
15.450209248
 10
4.2059858117
 20
15.4409667375
 10
4.1829109066
 20
15.4377211994
  0
ARC
  5
A8
330
1F
100
AcDbEntity
  8
0
  6
Continuous
 62
     7
370
    30
100
AcDbCircle
 10
4.1829109066
 20
13.7078085652
 30
0.0
 40
0.0420640852738302
100
AcDbArc
 50
247.904927047
 51
292.095072953
  0
LINE
  5
A9
330
1F
100
AcDbEntity
  8
0
  6
Continuous
 62
     7
370
    30
100
AcDbLine
 10
4.1479109066
 20
13.217969918
 30
0.0
 11
4.1670887286
 21
13.226018512
 31
0.0
  0
LINE
  5
AA
330
1F
100
AcDbEntity
  8
0
  6
Continuous
 62
     7
370
    30
100
AcDbLine
 10
4.1987330845
 20
13.226018512
 30
0.0
 11
4.2179109066
 21
13.217969918
 31
0.0
  0
LINE
  5
AB
330
1F
100
AcDbEntity
  8
0
  6
Continuous
 62
     7
370
    30
100
AcDbLine
 10
4.2179109066
 20
13.217969918
 30
0.0
 11
4.2179109066
 21
12.8390916554
 31
0.0
  0
LINE
  5
AC
330
1F
100
AcDbEntity
  8
0
  6
Continuous
 62
     7
370
    30
100
AcDbLine
 10
4.1670887286
 20
13.6688336251
 30
0.0
 11
4.1479109066
 21
13.676882219
 31
0.0
  0
LINE
  5
AD
330
1F
100
AcDbEntity
  8
0
  6
Continuous
 62
     7
370
    30
100
AcDbLine
 10
4.2179109066
 20
13.676882219
 30
0.0
 11
4.1987330845
 21
13.6688336251
 31
0.0
  0
LINE
  5
AE
330
1F
100
AcDbEntity
  8
0
  6
Continuous
 62
     7
370
    30
100
AcDbLine
 10
4.2179109066
 20
14.0169578817
 30
0.0
 11
4.2179109066
 21
13.676882219
 31
0.0
  0
LINE
  5
AF
330
1F
100
AcDbEntity
  8
0
  6
Continuous
 62
     7
370
    30
100
AcDbLine
 10
4.2179109066
 20
13.589188123
 30
0.0
 11
4.2179109066
 21
13.676882219
 31
0.0
  0
LINE
  5
B0
330
1F
100
AcDbEntity
  8
0
  6
Continuous
 62
     7
370
    30
100
AcDbLine
 10
4.2179109066
 20
13.217969918
 30
0.0
 11
4.2179109066
 21
13.2666460413
 31
0.0
  0
LWPOLYLINE
  5
B1
330
1F
100
AcDbEntity
  8
0
  6
Continuous
 62
     7
370
    30
100
AcDbPolyline
 90
        9
 70
   128
 43
0.0
 10
4.1829109066
 20
20.2039948123
 10
4.158993192
 20
20.2073588934
 10
4.1387167327
 20
20.2169389861
 10
4.1251684358
 20
20.231276608
 10
4.1204109066
 20
20.2481889861
 10
4.1251684358
 20
20.2651013642
 10
4.1387167327
 20
20.2794389861
 10
4.158993192
 20
20.2890190788
 10
4.1604834018
 20
20.2894397863
  0
LWPOLYLINE
  5
B2
330
1F
100
AcDbEntity
  8
0
  6
Continuous
 62
     7
370
    30
100
AcDbPolyline
 90
        9
 70
   128
 43
0.0
 10
4.2063734298
 20
20.2891509197
 10
4.2068286211
 20
20.2890190788
 10
4.2271050804
 20
20.2794389861
 10
4.2406533773
 20
20.2651013642
 10
4.2454109066
 20
20.2481889861
 10
4.2406533773
 20
20.231276608
 10
4.2271050804
 20
20.2169389861
 10
4.2068286211
 20
20.2073588934
 10
4.1829109066
 20
20.2039948123
  0
ARC
  5
B3
330
1F
100
AcDbEntity
  8
0
  6
Continuous
 62
     7
370
    30
100
AcDbCircle
 10
4.1829109066
 20
22.0207384854
 30
0.0
 40
0.0420640852737736
100
AcDbArc
 50
67.904927047
 51
112.095072953
  0
ARC
  5
B4
330
1F
100
AcDbEntity
  8
0
  6
Continuous
 62
     7
370
    30
100
AcDbCircle
 10
4.1829486488
 20
24.2907721399
 30
0.0
 40
0.0678093673063902
100
AcDbArc
 50
31.7969217957
 51
148.5951887433
  0
ARC
  5
B5
330
1F
100
AcDbEntity
  8
0
  6
Continuous
 62
     7
370
    30
100
AcDbCircle
 10
4.1962287725
 20
24.280040151
 30
0.0
 40
0.1099120495820514
100
AcDbArc
 50
45.972909509
 51
78.6227535292
  0
LINE
  5
B6
330
1F
100
AcDbEntity
  8
0
  6
Continuous
 62
     7
370
    30
100
AcDbLine
 10
4.2179109066
 20
24.3877923839
 30
0.0
 11
4.2179109066
 21
24.3892826263
 31
0.0
  0
ARC
  5
B7
330
1F
100
AcDbEntity
  8
0
  6
Continuous
 62
     7
370
    30
100
AcDbCircle
 10
4.1829109066
 20
22.5415034786
 30
0.0
 40
0.0420640852738394
100
AcDbArc
 50
247.904927047
 51
292.095072953
  0
LINE
  5
B8
330
1F
100
AcDbEntity
  8
0
  6
Continuous
 62
     7
370
    30
100
AcDbLine
 10
4.1987330845
 20
22.0597134255
 30
0.0
 11
4.2179109066
 21
22.0516648315
 31
0.0
  0
LINE
  5
B9
330
1F
100
AcDbEntity
  8
0
  6
Continuous
 62
     7
370
    30
100
AcDbLine
 10
4.2179109066
 20
22.0516648315
 30
0.0
 11
4.2179109066
 21
21.7130916554
 31
0.0
  0
LINE
  5
BA
330
1F
100
AcDbEntity
  8
0
  6
Continuous
 62
     7
370
    30
100
AcDbLine
 10
4.1479109066
 20
22.0516648315
 30
0.0
 11
4.1670887286
 21
22.0597134255
 31
0.0
  0
LINE
  5
BB
330
1F
100
AcDbEntity
  8
0
  6
Continuous
 62
     7
370
    30
100
AcDbLine
 10
4.2179109066
 20
22.5105771325
 30
0.0
 11
4.1987330845
 21
22.5025285386
 31
0.0
  0
LINE
  5
BC
330
1F
100
AcDbEntity
  8
0
  6
Continuous
 62
     7
370
    30
100
AcDbLine
 10
4.2179109066
 20
22.8909578817
 30
0.0
 11
4.2179109066
 21
22.5105771325
 31
0.0
  0
LINE
  5
BD
330
1F
100
AcDbEntity
  8
0
  6
Continuous
 62
     7
370
    30
100
AcDbLine
 10
4.1670887286
 20
22.5025285386
 30
0.0
 11
4.1479109066
 21
22.5105771325
 31
0.0
  0
LINE
  5
BE
330
1F
100
AcDbEntity
  8
0
  6
Continuous
 62
     7
370
    30
100
AcDbLine
 10
4.2179109066
 20
22.0516648315
 30
0.0
 11
4.2179109066
 21
22.1406460413
 31
0.0
  0
LINE
  5
BF
330
1F
100
AcDbEntity
  8
0
  6
Continuous
 62
     7
370
    30
100
AcDbLine
 10
4.2179109066
 20
22.463188123
 30
0.0
 11
4.2179109066
 21
22.5105771325
 31
0.0
  0
LINE
  5
C0
330
1F
100
AcDbEntity
  8
0
  6
Continuous
 62
     7
370
    30
100
AcDbLine
 10
38.5639109066
 20
14.9892735253
 30
0.0
 11
38.5639109066
 21
14.9872735253
 31
0.0
  0
LINE
  5
C1
330
1F
100
AcDbEntity
  8
0
  6
Continuous
 62
     7
370
    30
100
AcDbLine
 10
42.5369109066
 20
14.9872735253
 30
0.0
 11
42.5369109066
 21
15.0302735253
 31
0.0
  0
LINE
  5
C2
330
1F
100
AcDbEntity
  8
0
  6
Continuous
 62
     7
370
    30
100
AcDbLine
 10
42.5369109066
 20
14.9872735253
 30
0.0
 11
38.5639109066
 21
14.9872735253
 31
0.0
  0
CIRCLE
  5
C3
330
1F
100
AcDbEntity
  8
0
  6
Continuous
 62
     7
370
    30
100
AcDbCircle
 10
41.3549109066
 20
15.3332735253
 30
0.0
 40
0.0804999999999989
  0
CIRCLE
  5
C4
330
1F
100
AcDbEntity
  8
0
  6
Continuous
 62
     7
370
    30
100
AcDbCircle
 10
38.9799109066
 20
15.3332735253
 30
0.0
 40
0.0804999999999989
  0
LINE
  5
C5
330
1F
100
AcDbEntity
  8
0
  6
Continuous
 62
     7
370
    30
100
AcDbLine
 10
42.5369109066
 20
14.9192735253
 30
0.0
 11
42.5369109066
 21
14.9582735253
 31
0.0
  0
ARC
  5
C6
330
1F
100
AcDbEntity
  8
0
  6
Continuous
 62
     7
370
    30
100
AcDbCircle
 10
42.5369109066
 20
14.8902735253
 30
0.0
 40
0.0680000000000014
100
AcDbArc
 50
270.0
 51
90.0
  0
LINE
  5
C7
330
1F
100
AcDbEntity
  8
0
  6
Continuous
 62
     7
370
    30
100
AcDbLine
 10
42.5369109066
 20
14.8612735253
 30
0.0
 11
42.5369109066
 21
14.8222735253
 31
0.0
  0
ARC
  5
C8
330
1F
100
AcDbEntity
  8
0
  6
Continuous
 62
     7
370
    30
100
AcDbCircle
 10
42.5369109066
 20
14.8902735253
 30
0.0
 40
0.0290000000000017
100
AcDbArc
 50
270.0
 51
90.0
  0
LINE
  5
C9
330
1F
100
AcDbEntity
  8
0
  6
Continuous
 62
     7
370
    30
100
AcDbLine
 10
42.5339109066
 20
14.8612735253
 30
0.0
 11
42.5339109066
 21
14.8222735253
 31
0.0
  0
LINE
  5
CA
330
1F
100
AcDbEntity
  8
0
  6
Continuous
 62
     7
370
    30
100
AcDbLine
 10
42.5339109066
 20
14.8222735253
 30
0.0
 11
42.1049109066
 21
14.8222735253
 31
0.0
  0
LINE
  5
CB
330
1F
100
AcDbEntity
  8
0
  6
Continuous
 62
     7
370
    30
100
AcDbLine
 10
42.1049109066
 20
14.8222735253
 30
0.0
 11
42.1049109066
 21
14.8612735253
 31
0.0
  0
LINE
  5
CC
330
1F
100
AcDbEntity
  8
0
  6
Continuous
 62
     7
370
    30
100
AcDbLine
 10
42.1049109066
 20
14.8612735253
 30
0.0
 11
42.5339109066
 21
14.8612735253
 31
0.0
  0
LINE
  5
CD
330
1F
100
AcDbEntity
  8
0
  6
Continuous
 62
     7
370
    30
100
AcDbLine
 10
38.5639109066
 20
14.9582735253
 30
0.0
 11
38.5639109066
 21
14.9872735253
 31
0.0
  0
LINE
  5
CE
330
1F
100
AcDbEntity
  8
0
  6
Continuous
 62
     7
370
    30
100
AcDbLine
 10
42.5369109066
 20
14.9192735253
 30
0.0
 11
38.5639109066
 21
14.9192735253
 31
0.0
  0
LINE
  5
CF
330
1F
100
AcDbEntity
  8
0
  6
Continuous
 62
     7
370
    30
100
AcDbLine
 10
42.5369109066
 20
14.9872735253
 30
0.0
 11
42.5369109066
 21
14.9582735253
 31
0.0
  0
LINE
  5
D0
330
1F
100
AcDbEntity
  8
0
  6
Continuous
 62
     7
370
    30
100
AcDbLine
 10
42.5339109066
 20
14.8612735253
 30
0.0
 11
42.5369109066
 21
14.8612735253
 31
0.0
  0
LINE
  5
D1
330
1F
100
AcDbEntity
  8
0
  6
Continuous
 62
     7
370
    30
100
AcDbLine
 10
42.5339109066
 20
14.8222735253
 30
0.0
 11
42.5369109066
 21
14.8222735253
 31
0.0
  0
LINE
  5
D2
330
1F
100
AcDbEntity
  8
0
  6
Continuous
 62
     7
370
    30
100
AcDbLine
 10
38.5639109066
 20
14.9192735253
 30
0.0
 11
38.5639109066
 21
14.9582735253
 31
0.0
  0
ARC
  5
D3
330
1F
100
AcDbEntity
  8
0
  6
Continuous
 62
     7
370
    30
100
AcDbCircle
 10
38.5639109066
 20
14.8902735253
 30
0.0
 40
0.0289999999999981
100
AcDbArc
 50
90.0
 51
164.9098148205
  0
ARC
  5
D4
330
1F
100
AcDbEntity
  8
0
  6
Continuous
 62
     7
370
    30
100
AcDbCircle
 10
38.5639109066
 20
14.8902735253
 30
0.0
 40
0.0679999999999973
100
AcDbArc
 50
90.0
 51
114.3157391712
  0
LINE
  5
D5
330
1F
100
AcDbEntity
  8
0
  6
Continuous
 62
     7
370
    30
100
AcDbLine
 10
38.5639109066
 20
20.7412735253
 30
0.0
 11
38.5639109066
 21
20.7392735253
 31
0.0
  0
LINE
  5
D6
330
1F
100
AcDbEntity
  8
0
  6
Continuous
 62
     7
370
    30
100
AcDbLine
 10
38.5639109066
 20
20.7412735253
 30
0.0
 11
42.5369109066
 21
20.7412735253
 31
0.0
  0
CIRCLE
  5
D7
330
1F
100
AcDbEntity
  8
0
  6
Continuous
 62
     7
370
    30
100
AcDbCircle
 10
41.3549109066
 20
20.3952735253
 30
0.0
 40
0.0805000000000007
  0
CIRCLE
  5
D8
330
1F
100
AcDbEntity
  8
0
  6
Continuous
 62
     7
370
    30
100
AcDbCircle
 10
38.9799109066
 20
20.3952735253
 30
0.0
 40
0.0805000000000007
  0
LINE
  5
D9
330
1F
100
AcDbEntity
  8
0
  6
Continuous
 62
     7
370
    30
100
AcDbLine
 10
42.5369109066
 20
20.6982735253
 30
0.0
 11
42.5369109066
 21
20.7412735253
 31
0.0
  0
LINE
  5
DA
330
1F
100
AcDbEntity
  8
0
  6
Continuous
 62
     7
370
    30
100
AcDbLine
 10
42.5369109066
 20
20.8672735253
 30
0.0
 11
42.5369109066
 21
20.9062735253
 31
0.0
  0
LINE
  5
DB
330
1F
100
AcDbEntity
  8
0
  6
Continuous
 62
     7
370
    30
100
AcDbLine
 10
42.5339109066
 20
20.9062735253
 30
0.0
 11
42.5339109066
 21
20.8672735253
 31
0.0
  0
LINE
  5
DC
330
1F
100
AcDbEntity
  8
0
  6
Continuous
 62
     7
370
    30
100
AcDbLine
 10
42.5369109066
 20
20.9062735253
 30
0.0
 11
42.5339109066
 21
20.9062735253
 31
0.0
  0
LINE
  5
DD
330
1F
100
AcDbEntity
  8
0
  6
Continuous
 62
     7
370
    30
100
AcDbLine
 10
42.5369109066
 20
20.8672735253
 30
0.0
 11
42.5339109066
 21
20.8672735253
 31
0.0
  0
LINE
  5
DE
330
1F
100
AcDbEntity
  8
0
  6
Continuous
 62
     7
370
    30
100
AcDbLine
 10
42.1049109066
 20
20.8672735253
 30
0.0
 11
42.1049109066
 21
20.9062735253
 31
0.0
  0
LINE
  5
DF
330
1F
100
AcDbEntity
  8
0
  6
Continuous
 62
     7
370
    30
100
AcDbLine
 10
42.1049109066
 20
20.9062735253
 30
0.0
 11
42.5339109066
 21
20.9062735253
 31
0.0
  0
LINE
  5
E0
330
1F
100
AcDbEntity
  8
0
  6
Continuous
 62
     7
370
    30
100
AcDbLine
 10
42.5339109066
 20
20.8672735253
 30
0.0
 11
42.1049109066
 21
20.8672735253
 31
0.0
  0
LINE
  5
E1
330
1F
100
AcDbEntity
  8
0
  6
Continuous
 62
     7
370
    30
100
AcDbLine
 10
42.5369109066
 20
20.8092735253
 30
0.0
 11
42.5369109066
 21
20.7702735253
 31
0.0
  0
ARC
  5
E2
330
1F
100
AcDbEntity
  8
0
  6
Continuous
 62
     7
370
    30
100
AcDbCircle
 10
42.5369109066
 20
20.8382735253
 30
0.0
 40
0.0290000000000035
100
AcDbArc
 50
270.0
 51
90.0
  0
ARC
  5
E3
330
1F
100
AcDbEntity
  8
0
  6
Continuous
 62
     7
370
    30
100
AcDbCircle
 10
42.5369109066
 20
20.8382735253
 30
0.0
 40
0.0680000000000014
100
AcDbArc
 50
270.0
 51
90.0
  0
LINE
  5
E4
330
1F
100
AcDbEntity
  8
0
  6
Continuous
 62
     7
370
    30
100
AcDbLine
 10
42.5369109066
 20
20.7702735253
 30
0.0
 11
42.5369109066
 21
20.7412735253
 31
0.0
  0
LINE
  5
E5
330
1F
100
AcDbEntity
  8
0
  6
Continuous
 62
     7
370
    30
100
AcDbLine
 10
38.5639109066
 20
20.7412735253
 30
0.0
 11
38.5639109066
 21
20.7702735253
 31
0.0
  0
LINE
  5
E6
330
1F
100
AcDbEntity
  8
0
  6
Continuous
 62
     7
370
    30
100
AcDbLine
 10
38.5639109066
 20
20.8092735253
 30
0.0
 11
42.5369109066
 21
20.8092735253
 31
0.0
  0
ARC
  5
E7
330
1F
100
AcDbEntity
  8
0
  6
Continuous
 62
     7
370
    30
100
AcDbCircle
 10
38.5639109066
 20
20.8382735253
 30
0.0
 40
0.0289999999999964
100
AcDbArc
 50
195.0901851795
 51
270.0
  0
LINE
  5
E8
330
1F
100
AcDbEntity
  8
0
  6
Continuous
 62
     7
370
    30
100
AcDbLine
 10
38.5639109066
 20
20.8092735253
 30
0.0
 11
38.5639109066
 21
20.7702735253
 31
0.0
  0
ARC
  5
E9
330
1F
100
AcDbEntity
  8
0
  6
Continuous
 62
     7
370
    30
100
AcDbCircle
 10
38.5639109066
 20
20.8382735253
 30
0.0
 40
0.0680000000000014
100
AcDbArc
 50
245.6842608288
 51
270.0
  0
LINE
  5
EA
330
1F
100
AcDbEntity
  8
0
  6
Continuous
 62
     7
370
    30
100
AcDbLine
 10
4.7139109066
 20
10.4897735678
 30
0.0
 11
4.7139109066
 21
16.3647735253
 31
0.0
  0
SPLINE
  5
EB
330
1F
100
AcDbEntity
  8
0
  6
Continuous
 62
     7
370
    30
100
AcDbSpline
210
0.0
220
0.0
230
1.0
 70
     8
 71
     3
 72
    11
 73
     7
 74
     0
 42
0.00000001
 43
0.00000001
 40
0.0
 40
0.0
 40
0.0
 40
0.0
 40
0.2482228941804431
 40
0.5476872423437312
 40
0.8471515880991193
 40
0.9999999999999999
 40
0.9999999999999999
 40
0.9999999999999999
 40
0.9999999999999999
 10
4.713910906567688
 20
10.48977356782848
 30
0.0
 10
4.714852329584382
 20
10.47811746565755
 30
0.0
 10
4.716929516612587
 20
10.45239905448699
 30
0.0
 10
4.735331136832273
 20
10.41651245630634
 30
0.0
 10
4.759684716276983
 20
10.38958034355423
 30
0.0
 10
4.779286833944086
 20
10.38131882137441
 30
0.0
 10
4.785910906567717
 20
10.37852703510772
 30
0.0
  0
SPLINE
  5
EC
330
1F
100
AcDbEntity
  8
0
  6
Continuous
 62
     7
370
    30
100
AcDbSpline
210
0.0
220
0.0
230
1.0
 70
     8
 71
     3
 72
    11
 73
     7
 74
     0
 42
0.00000001
 43
0.00000001
 40
0.0
 40
0.0
 40
0.0
 40
0.0
 40
0.2679044899629779
 40
0.5663008895176754
 40
0.8646972930138229
 40
1.0
 40
1.0
 40
1.0
 40
1.0
 10
4.785910906567719
 20
10.37728186058832
 30
0.0
 10
4.774829304724324
 20
10.38344518408609
 30
0.0
 10
4.751404833629935
 20
10.39647331802911
 30
0.0
 10
4.726699921910066
 20
10.43002761629576
 30
0.0
 10
4.715134176978505
 20
10.46306597833906
 30
0.0
 10
4.714201787533057
 20
10.48342278116303
 30
0.0
 10
4.71391090656769
 20
10.48977356782848
 30
0.0
  0
SPLINE
  5
ED
330
1F
100
AcDbEntity
  8
0
  6
Continuous
 62
     7
370
    30
100
AcDbSpline
210
0.0
220
0.0
230
1.0
 70
    11
 71
     3
 72
    26
 73
    22
 74
     0
 42
0.00000001
 43
0.00000001
 40
0.0
 40
0.0
 40
0.0
 40
0.0
 40
0.0544667872399433
 40
0.1089268382484912
 40
0.1634704995656363
 40
0.2174400578741272
 40
0.2704150502199496
 40
0.3228028558387387
 40
0.3755119735780827
 40
0.4291520182849716
 40
0.4835702712004247
 40
0.5380926546297061
 40
0.5921883668258661
 40
0.6458196585991702
 40
0.6992232428329961
 40
0.752584378349192
 40
0.8059545355523849
 40
0.8593243999231209
 40
0.9126849302478867
 40
0.9660895947363619
 40
1.0
 40
1.0
 40
1.0
 40
1.0
 10
4.401910906567707
 20
13.80227352527529
 30
0.0
 10
4.399438621382368
 20
13.82713740937927
 30
0.0
 10
4.394494356773889
 20
13.87686210252284
 30
0.0
 10
4.356110094985105
 20
13.94279456759391
 30
0.0
 10
4.299651433794168
 20
13.99265508339385
 30
0.0
 10
4.229574428995898
 20
14.02053398398804
 30
0.0
 10
4.155159077209417
 20
14.02361674014705
 30
0.0
 10
4.084528565788029
 20
14.00242314452628
 30
0.0
 10
4.024661549042424
 20
13.95949917004569
 30
0.0
 10
3.981692322365527
 20
13.89883899568572
 30
0.0
 10
3.960960828788735
 20
13.8265598886325
 30
0.0
 10
3.965583172561141
 20
13.75105131572073
 30
0.0
 10
3.995149185420099
 20
13.68152002461233
 30
0.0
 10
4.045934264137957
 20
13.62604902730537
 30
0.0
 10
4.111988894477012
 20
13.59065872464499
 30
0.0
 10
4.185939496135306
 20
13.57911318871496
 30
0.0
 10
4.259507981772008
 20
13.59265340039321
 30
0.0
 10
4.324537407712018
 20
13.62975082537619
 30
0.0
 10
4.373249494801047
 20
13.68612924375708
 30
0.0
 10
4.398432399506719
 20
13.74702687837032
 30
0.0
 10
4.400937863697509
 20
13.7868193793067
 30
0.0
 10
4.401910906567707
 20
13.80227352527529
 30
0.0
  0
LINE
  5
EE
330
1F
100
AcDbEntity
  8
0
  6
Continuous
 62
     7
370
    30
100
AcDbLine
 10
1.5579109066
 20
10.4897735678
 30
0.0
 11
1.5579109066
 21
16.3647735253
 31
0.0
  0
LINE
  5
EF
330
1F
100
AcDbEntity
  8
0
  6
Continuous
 62
     7
370
    30
100
AcDbLine
 10
4.7139109066
 20
10.4897735678
 30
0.0
 11
1.5579109066
 21
10.4897735678
 31
0.0
  0
SPLINE
  5
F0
330
1F
100
AcDbEntity
  8
0
  6
Continuous
 62
     7
370
    30
100
AcDbSpline
210
0.0
220
0.0
230
1.0
 70
    11
 71
     3
 72
    26
 73
    22
 74
     0
 42
0.00000001
 43
0.00000001
 40
0.0
 40
0.0
 40
0.0
 40
0.0
 40
0.0538055509179531
 40
0.1076239762172052
 40
0.1611571576109571
 40
0.2145341945608767
 40
0.267896273532799
 40
0.3212673363290208
 40
0.3746332127056932
 40
0.4279954326338855
 40
0.481443598294753
 40
0.5351982141584042
 40
0.5894472093169633
 40
0.6440133598349768
 40
0.6982544604098672
 40
0.7515622019426691
 40
0.8040547681706529
 40
0.8565560407416485
 40
0.9098581919200309
 40
0.9640749840941908
 40
1.0
 40
1.0
 40
1.0
 40
1.0
 10
4.401910906567707
 20
13.05227352527529
 30
0.0
 10
4.399497552450438
 20
13.07688708836521
 30
0.0
 10
4.394670266757974
 20
13.12612010398193
 30
0.0
 10
4.356830776588985
 20
13.19182335840585
 30
0.0
 10
4.301092649372651
 20
13.24165663764254
 30
0.0
 10
4.231690760980491
 20
13.27005444038953
 30
0.0
 10
4.156986161929717
 20
13.27394336657902
 30
0.0
 10
4.085174344053564
 20
13.25291486120925
 30
0.0
 10
4.024392173620912
 20
13.2093618619114
 30
0.0
 10
3.981448507657998
 20
13.14825296413675
 30
0.0
 10
3.961067856087762
 20
13.07645342831702
 30
0.0
 10
3.965498394836829
 20
13.0018131576907
 30
0.0
 10
3.994512843165582
 20
12.93248995993743
 30
0.0
 10
4.045213681899224
 20
12.87649979354355
 30
0.0
 10
4.111675907000424
 20
12.84070919757397
 30
0.0
 10
4.185603236843949
 20
12.82917487091676
 30
0.0
 10
4.258332060349635
 20
12.84238989687871
 30
0.0
 10
4.32261953630284
 20
12.87835563254897
 30
0.0
 10
4.371644012759217
 20
12.93357392302219
 30
0.0
 10
4.398084542102388
 20
12.99488135936233
 30
0.0
 10
4.400820514980675
 20
13.03591859216835
 30
0.0
 10
4.401910906567707
 20
13.05227352527529
 30
0.0
  0
SPLINE
  5
F1
330
1F
100
AcDbEntity
  8
0
  6
Continuous
 62
     7
370
    30
100
AcDbSpline
210
0.0
220
0.0
230
1.0
 70
    11
 71
     3
 72
    26
 73
    22
 74
     0
 42
0.00000001
 43
0.00000001
 40
0.0
 40
0.0
 40
0.0
 40
0.0
 40
0.0536700963836202
 40
0.1073395305524899
 40
0.1610261488212654
 40
0.2147239606270485
 40
0.2684031059833791
 40
0.3220628754997281
 40
0.3757327722247817
 40
0.4294265066218719
 40
0.4831206021864831
 40
0.5367909859767073
 40
0.5904506064737598
 40
0.644129202154025
 40
0.6978268991969921
 40
0.7515140157118075
 40
0.8051773989219394
 40
0.8588409231981322
 40
0.912528231709566
 40
0.966225881299406
 40
1.0
 40
1.0
 40
1.0
 40
1.0
 10
4.182910906567701
 20
15.56963284697439
 30
0.0
 10
4.193449927852414
 20
15.56892435023801
 30
0.0
 10
4.214527840384901
 20
15.56750736550713
 30
0.0
 10
4.242582236684999
 20
15.55642093536781
 30
0.0
 10
4.263916138951182
 20
15.53997056321153
 30
0.0
 10
4.276120694940531
 20
15.51922723775851
 30
0.0
 10
4.277815707335186
 20
15.49662417573824
 30
0.0
 10
4.268816850514739
 20
15.47465241595091
 30
0.0
 10
4.250140574229774
 20
15.45586041449367
 30
0.0
 10
4.223882799182812
 20
15.44247590911641
 30
0.0
 10
4.1930025182589
 20
15.43612988425281
 30
0.0
 10
4.160990573740712
 20
15.43760237317005
 30
0.0
 10
4.131454328601392
 20
15.44670636887586
 30
0.0
 10
4.107712287047228
 20
15.46232971376525
 30
0.0
 10
4.092441361994277
 20
15.48259458779328
 30
0.0
 10
4.087371030406413
 20
15.5051130521944
 30
0.0
 10
4.093067941390951
 20
15.52729280623634
 30
0.0
 10
4.10888858449131
 20
15.54671786751648
 30
0.0
 10
4.1330402425206
 20
15.56117372278184
 30
0.0
 10
4.159181802373713
 20
15.56860913112444
 30
0.0
 10
4.176300953837791
 20
15.56934768183197
 30
0.0
 10
4.182910906567701
 20
15.56963284697439
 30
0.0
  0
SPLINE
  5
F2
330
1F
100
AcDbEntity
  8
0
  6
Continuous
 62
     7
370
    30
100
AcDbSpline
210
0.0
220
0.0
230
1.0
 70
    11
 71
     3
 72
    26
 73
    22
 74
     0
 42
0.00000001
 43
0.00000001
 40
0.0
 40
0.0
 40
0.0
 40
0.0
 40
0.0536700963836202
 40
0.1073395305524866
 40
0.1610261488212632
 40
0.2147239606270459
 40
0.2684031059833769
 40
0.3220628754997279
 40
0.3757327722247816
 40
0.4294265066218684
 40
0.4831206021864831
 40
0.5367909859767073
 40
0.5904506064737601
 40
0.6441292021540248
 40
0.6978268991969911
 40
0.7515140157118065
 40
0.8051773989219385
 40
0.8588409231981289
 40
0.9125282317095657
 40
0.9662258812994021
 40
1.0
 40
1.0
 40
1.0
 40
1.0
 10
4.1829109065677
 20
11.4174967250487
 30
0.0
 10
4.193449927852414
 20
11.4167401025141
 30
0.0
 10
4.214527840384896
 20
11.41522686678056
 30
0.0
 10
4.242582236684995
 20
11.40347157158386
 30
0.0
 10
4.263916138951178
 20
11.38627830641481
 30
0.0
 10
4.276120694940536
 20
11.36500132725522
 30
0.0
 10
4.277815707335182
 20
11.34231909613905
 30
0.0
 10
4.268816850514739
 20
11.32075397465445
 30
0.0
 10
4.250140574229765
 20
11.30267716892481
 30
0.0
 10
4.223882799182817
 20
11.29000327730852
 30
0.0
 10
4.193002518258906
 20
11.2840516821032
 30
0.0
 10
4.16099057374071
 20
11.28542938552391
 30
0.0
 10
4.131454328601389
 20
11.29399128716995
 30
0.0
 10
4.107712287047225
 20
11.30886265690395
 30
0.0
 10
4.092441361994273
 20
11.32849492686047
 30
0.0
 10
4.087371030406408
 20
11.35077769644684
 30
0.0
 10
4.093067941390956
 20
11.37322111703124
 30
0.0
 10
4.108888584491308
 20
11.39329575970538
 30
0.0
 10
4.133040242520594
 20
11.40849471537468
 30
0.0
 10
4.159181802373713
 20
11.41640498771238
 30
0.0
 10
4.176300953837794
 20
11.4171926119171
 30
0.0
 10
4.182910906567701
 20
11.4174967250487
 30
0.0
  0
SPLINE
  5
F3
330
1F
100
AcDbEntity
  8
0
  6
Continuous
 62
     7
370
    30
100
AcDbSpline
210
0.0
220
0.0
230
1.0
 70
     8
 71
     3
 72
    12
 73
     8
 74
     0
 42
0.00000001
 43
0.00000001
 40
0.0
 40
0.0
 40
0.0
 40
0.0
 40
0.2448071324617551
 40
0.4896111731679175
 40
0.7344954430348445
 40
0.9794319748546152
 40
1.0
 40
1.0
 40
1.0
 40
1.0
 10
4.182910906567701
 20
15.54557881952837
 30
0.0
 10
4.193434230064082
 20
15.54486915593138
 30
0.0
 10
4.214480744154081
 20
15.54344983769998
 30
0.0
 10
4.242769429185878
 20
15.53238934318887
 30
0.0
 10
4.263212212465064
 20
15.51586034956625
 30
0.0
 10
4.274004978557574
 20
15.5016676261614
 30
0.0
 10
4.274473274724904
 20
15.49363098510515
 30
0.0
 10
4.274509552547988
 20
15.49300840507407
 30
0.0
  0
SPLINE
  5
F4
330
1F
100
AcDbEntity
  8
0
  6
Continuous
 62
     7
370
    30
100
AcDbSpline
210
0.0
220
0.0
230
1.0
 70
     8
 71
     3
 72
    11
 73
     7
 74
     0
 42
0.00000001
 43
0.00000001
 40
0.0
 40
0.0
 40
0.0
 40
0.0
 40
0.2337850284454217
 40
0.5251921927256576
 40
0.8166568227314285
 40
1.0
 40
1.0
 40
1.0
 40
1.0
 10
4.097817014503278
 20
15.50654914011474
 30
0.0
 10
4.101526881159145
 20
15.51187418729321
 30
0.0
 10
4.109861003393876
 20
15.52383677199173
 30
0.0
 10
4.133219691770966
 20
15.5370580421489
 30
0.0
 10
4.15915373830103
 20
15.54456460202137
 30
0.0
 10
4.176292797934252
 20
15.54529628578681
 30
0.0
 10
4.182910906567701
 20
15.54557881952837
 30
0.0
  0
SPLINE
  5
F5
330
1F
100
AcDbEntity
  8
0
  6
Continuous
 62
     7
370
    30
100
AcDbSpline
210
0.0
220
0.0
230
1.0
 70
     8
 71
     3
 72
    16
 73
    12
 74
     0
 42
0.00000001
 43
0.00000001
 40
0.0
 40
0.0
 40
0.0
 40
0.0
 40
0.0967827834643974
 40
0.2184344630821779
 40
0.340141447583472
 40
0.4618492733043132
 40
0.5835020858889985
 40
0.7051299239711153
 40
0.8268017840824008
 40
0.9485179632399359
 40
1.0
 40
1.0
 40
1.0
 40
1.0
 10
4.274229865339321
 20
11.36222115866947
 30
0.0
 10
4.272383697000228
 20
11.35645822595461
 30
0.0
 10
4.268216976686204
 20
11.34345154162204
 30
0.0
 10
4.249943944820042
 20
11.32675972658481
 30
0.0
 10
4.223938693083427
 20
11.31404681740026
 30
0.0
 10
4.192982099637572
 20
11.30810751646215
 30
0.0
 10
4.161023715408123
 20
11.30948636410658
 30
0.0
 10
4.131350175500642
 20
11.31802651885921
 30
0.0
 10
4.108104110213761
 20
11.3329638057268
 30
0.0
 10
4.094276781624794
 20
11.34860340161648
 30
0.0
 10
4.092549727201881
 20
11.35910907495499
 30
0.0
 10
4.092036371571649
 20
11.36223181763532
 30
0.0
  0
LINE
  5
F6
330
1F
100
AcDbEntity
  8
0
  6
Continuous
 62
     7
370
    30
100
AcDbLine
 10
4.7139109066
 20
19.3637735678
 30
0.0
 11
4.7139109066
 21
25.2387735253
 31
0.0
  0
SPLINE
  5
F7
330
1F
100
AcDbEntity
  8
0
  6
Continuous
 62
     7
370
    30
100
AcDbSpline
210
0.0
220
0.0
230
1.0
 70
     8
 71
     3
 72
    11
 73
     7
 74
     0
 42
0.00000001
 43
0.00000001
 40
0.0
 40
0.0
 40
0.0
 40
0.0
 40
0.2482228941804636
 40
0.5476872423437755
 40
0.8471515880991909
 40
0.9999999999999999
 40
0.9999999999999999
 40
0.9999999999999999
 40
0.9999999999999999
 10
4.713910906567699
 20
19.36377356782845
 30
0.0
 10
4.714852329584398
 20
19.35211746565751
 30
0.0
 10
4.716929516612598
 20
19.32639905448696
 30
0.0
 10
4.735331136832279
 20
19.29051245630631
 30
0.0
 10
4.759684716276983
 20
19.2635803435542
 30
0.0
 10
4.779286833944086
 20
19.25531882137438
 30
0.0
 10
4.785910906567715
 20
19.2525270351077
 30
0.0
  0
SPLINE
  5
F8
330
1F
100
AcDbEntity
  8
0
  6
Continuous
 62
     7
370
    30
100
AcDbSpline
210
0.0
220
0.0
230
1.0
 70
     8
 71
     3
 72
    11
 73
     7
 74
     0
 42
0.00000001
 43
0.00000001
 40
0.0
 40
0.0
 40
0.0
 40
0.0
 40
0.2679044899628985
 40
0.5663008895176408
 40
0.8646972930138125
 40
1.0
 40
1.0
 40
1.0
 40
1.0
 10
4.785910906567717
 20
19.2512818605883
 30
0.0
 10
4.774829304724329
 20
19.25744518408607
 30
0.0
 10
4.751404833629947
 20
19.27047331802908
 30
0.0
 10
4.726699921910071
 20
19.30402761629573
 30
0.0
 10
4.715134176978522
 20
19.33706597833903
 30
0.0
 10
4.714201787533063
 20
19.357422781163
 30
0.0
 10
4.713910906567699
 20
19.36377356782845
 30
0.0
  0
SPLINE
  5
F9
330
1F
100
AcDbEntity
  8
0
  6
Continuous
 62
     7
370
    30
100
AcDbSpline
210
0.0
220
0.0
230
1.0
 70
    11
 71
     3
 72
    26
 73
    22
 74
     0
 42
0.00000001
 43
0.00000001
 40
0.0
 40
0.0
 40
0.0
 40
0.0
 40
0.0544667872399435
 40
0.1089268382484905
 40
0.1634704995656354
 40
0.2174400578741279
 40
0.2704150502199487
 40
0.3228028558387377
 40
0.3755119735780819
 40
0.4291520182849716
 40
0.4835702712004245
 40
0.5380926546297065
 40
0.5921883668258665
 40
0.6458196585991708
 40
0.6992232428329952
 40
0.7525843783491926
 40
0.8059545355523838
 40
0.8593243999231198
 40
0.912684930247887
 40
0.9660895947363617
 40
1.0
 40
1.0
 40
1.0
 40
1.0
 10
4.401910906567707
 20
22.67627352527526
 30
0.0
 10
4.399438621382363
 20
22.70113740937923
 30
0.0
 10
4.394494356773887
 20
22.75086210252281
 30
0.0
 10
4.356110094985103
 20
22.81679456759387
 30
0.0
 10
4.299651433794166
 20
22.86665508339382
 30
0.0
 10
4.229574428995895
 20
22.894533983988
 30
0.0
 10
4.155159077209412
 20
22.89761674014701
 30
0.0
 10
4.084528565788034
 20
22.87642314452624
 30
0.0
 10
4.024661549042428
 20
22.83349917004565
 30
0.0
 10
3.98169232236552
 20
22.77283899568569
 30
0.0
 10
3.960960828788737
 20
22.70055988863246
 30
0.0
 10
3.965583172561134
 20
22.6250513157207
 30
0.0
 10
3.995149185420108
 20
22.5555200246123
 30
0.0
 10
4.045934264137957
 20
22.50004902730533
 30
0.0
 10
4.111988894477006
 20
22.46465872464496
 30
0.0
 10
4.185939496135307
 20
22.45311318871493
 30
0.0
 10
4.259507981772003
 20
22.46665340039318
 30
0.0
 10
4.324537407712014
 20
22.50375082537616
 30
0.0
 10
4.373249494801044
 20
22.56012924375705
 30
0.0
 10
4.398432399506725
 20
22.62102687837029
 30
0.0
 10
4.400937863697507
 20
22.66081937930667
 30
0.0
 10
4.401910906567707
 20
22.67627352527526
 30
0.0
  0
LINE
  5
FA
330
1F
100
AcDbEntity
  8
0
  6
Continuous
 62
     7
370
    30
100
AcDbLine
 10
1.5579109066
 20
19.3637735678
 30
0.0
 11
1.5579109066
 21
25.2387735253
 31
0.0
  0
LINE
  5
FB
330
1F
100
AcDbEntity
  8
0
  6
Continuous
 62
     7
370
    30
100
AcDbLine
 10
4.7139109066
 20
19.3637735678
 30
0.0
 11
1.5579109066
 21
19.3637735678
 31
0.0
  0
SPLINE
  5
FC
330
1F
100
AcDbEntity
  8
0
  6
Continuous
 62
     7
370
    30
100
AcDbSpline
210
0.0
220
0.0
230
1.0
 70
    11
 71
     3
 72
    26
 73
    22
 74
     0
 42
0.00000001
 43
0.00000001
 40
0.0
 40
0.0
 40
0.0
 40
0.0
 40
0.0538055509179535
 40
0.1076239762172052
 40
0.1611571576109573
 40
0.2145341945608784
 40
0.267896273532799
 40
0.3212673363290221
 40
0.3746332127056946
 40
0.4279954326338861
 40
0.4814435982947532
 40
0.5351982141584054
 40
0.589447209316964
 40
0.6440133598349765
 40
0.6982544604098685
 40
0.7515622019426688
 40
0.8040547681706526
 40
0.8565560407416494
 40
0.9098581919200311
 40
0.9640749840941908
 40
1.0
 40
1.0
 40
1.0
 40
1.0
 10
4.401910906567707
 20
21.92627352527526
 30
0.0
 10
4.399497552450438
 20
21.95088708836517
 30
0.0
 10
4.394670266757976
 20
22.0001201039819
 30
0.0
 10
4.356830776588989
 20
22.06582335840582
 30
0.0
 10
4.301092649372647
 20
22.1156566376425
 30
0.0
 10
4.231690760980492
 20
22.1440544403895
 30
0.0
 10
4.156986161929717
 20
22.14794336657899
 30
0.0
 10
4.085174344053559
 20
22.12691486120922
 30
0.0
 10
4.02439217362091
 20
22.08336186191137
 30
0.0
 10
3.981448507657998
 20
22.02225296413672
 30
0.0
 10
3.96106785608776
 20
21.95045342831699
 30
0.0
 10
3.965498394836827
 20
21.87581315769067
 30
0.0
 10
3.994512843165582
 20
21.8064899599374
 30
0.0
 10
4.045213681899215
 20
21.75049979354351
 30
0.0
 10
4.111675907000435
 20
21.71470919757393
 30
0.0
 10
4.185603236843949
 20
21.70317487091672
 30
0.0
 10
4.258332060349639
 20
21.71638989687868
 30
0.0
 10
4.32261953630284
 20
21.75235563254893
 30
0.0
 10
4.371644012759219
 20
21.80757392302216
 30
0.0
 10
4.398084542102396
 20
21.8688813593623
 30
0.0
 10
4.400820514980672
 20
21.90991859216832
 30
0.0
 10
4.401910906567707
 20
21.92627352527526
 30
0.0
  0
SPLINE
  5
FD
330
1F
100
AcDbEntity
  8
0
  6
Continuous
 62
     7
370
    30
100
AcDbSpline
210
0.0
220
0.0
230
1.0
 70
    11
 71
     3
 72
    26
 73
    22
 74
     0
 42
0.00000001
 43
0.00000001
 40
0.0
 40
0.0
 40
0.0
 40
0.0
 40
0.0536700963836201
 40
0.1073395305524898
 40
0.1610261488212638
 40
0.2147239606270479
 40
0.2684031059833785
 40
0.3220628754997281
 40
0.3757327722247834
 40
0.4294265066218698
 40
0.4831206021864812
 40
0.5367909859767055
 40
0.5904506064737614
 40
0.6441292021540266
 40
0.6978268991969914
 40
0.7515140157118063
 40
0.805177398921939
 40
0.8588409231981295
 40
0.9125282317095659
 40
0.9662258812994021
 40
0.9999999999999999
 40
0.9999999999999999
 40
0.9999999999999999
 40
0.9999999999999999
 10
4.182910906567703
 20
24.44363284697435
 30
0.0
 10
4.193449927852418
 20
24.44292435023798
 30
0.0
 10
4.214527840384903
 20
24.4415073655071
 30
0.0
 10
4.242582236684997
 20
24.43042093536777
 30
0.0
 10
4.263916138951179
 20
24.4139705632115
 30
0.0
 10
4.276120694940536
 20
24.39322723775847
 30
0.0
 10
4.277815707335191
 20
24.3706241757382
 30
0.0
 10
4.268816850514746
 20
24.34865241595087
 30
0.0
 10
4.250140574229763
 20
24.32986041449364
 30
0.0
 10
4.223882799182821
 20
24.31647590911638
 30
0.0
 10
4.1930025182589
 20
24.31012988425278
 30
0.0
 10
4.160990573740716
 20
24.31160237317002
 30
0.0
 10
4.131454328601389
 20
24.32070636887582
 30
0.0
 10
4.107712287047232
 20
24.33632971376522
 30
0.0
 10
4.092441361994279
 20
24.35659458779325
 30
0.0
 10
4.087371030406405
 20
24.37911305219437
 30
0.0
 10
4.093067941390965
 20
24.4012928062363
 30
0.0
 10
4.108888584491304
 20
24.42071786751645
 30
0.0
 10
4.133040242520603
 20
24.4351737227818
 30
0.0
 10
4.15918180237371
 20
24.44260913112441
 30
0.0
 10
4.176300953837791
 20
24.44334768183193
 30
0.0
 10
4.182910906567703
 20
24.44363284697435
 30
0.0
  0
SPLINE
  5
FE
330
1F
100
AcDbEntity
  8
0
  6
Continuous
 62
     7
370
    30
100
AcDbSpline
210
0.0
220
0.0
230
1.0
 70
    11
 71
     3
 72
    26
 73
    22
 74
     0
 42
0.00000001
 43
0.00000001
 40
0.0
 40
0.0
 40
0.0
 40
0.0
 40
0.0536700963836166
 40
0.1073395305524862
 40
0.1610261488212594
 40
0.2147239606270437
 40
0.2684031059833742
 40
0.3220628754997247
 40
0.3757327722247796
 40
0.429426506621867
 40
0.4831206021864786
 40
0.5367909859767029
 40
0.5904506064737591
 40
0.6441292021540239
 40
0.69782689919699
 40
0.7515140157118056
 40
0.805177398921937
 40
0.8588409231981277
 40
0.9125282317095625
 40
0.9662258812994022
 40
1.0
 40
1.0
 40
1.0
 40
1.0
 10
4.182910906567706
 20
20.29149672504867
 30
0.0
 10
4.193449927852418
 20
20.29074010251406
 30
0.0
 10
4.214527840384901
 20
20.28922686678053
 30
0.0
 10
4.242582236685006
 20
20.27747157158383
 30
0.0
 10
4.263916138951178
 20
20.26027830641478
 30
0.0
 10
4.276120694940538
 20
20.23900132725518
 30
0.0
 10
4.277815707335193
 20
20.21631909613902
 30
0.0
 10
4.268816850514739
 20
20.19475397465442
 30
0.0
 10
4.250140574229774
 20
20.17667716892478
 30
0.0
 10
4.223882799182823
 20
20.16400327730848
 30
0.0
 10
4.193002518258904
 20
20.15805168210317
 30
0.0
 10
4.160990573740716
 20
20.15942938552388
 30
0.0
 10
4.131454328601388
 20
20.16799128716992
 30
0.0
 10
4.107712287047228
 20
20.18286265690392
 30
0.0
 10
4.092441361994282
 20
20.20249492686044
 30
0.0
 10
4.087371030406401
 20
20.2247776964468
 30
0.0
 10
4.093067941390963
 20
20.2472211170312
 30
0.0
 10
4.108888584491304
 20
20.26729575970535
 30
0.0
 10
4.133040242520599
 20
20.28249471537465
 30
0.0
 10
4.159181802373716
 20
20.29040498771234
 30
0.0
 10
4.176300953837791
 20
20.29119261191707
 30
0.0
 10
4.182910906567703
 20
20.29149672504867
 30
0.0
  0
SPLINE
  5
FF
330
1F
100
AcDbEntity
  8
0
  6
Continuous
 62
     7
370
    30
100
AcDbSpline
210
0.0
220
0.0
230
1.0
 70
     8
 71
     3
 72
    12
 73
     8
 74
     0
 42
0.00000001
 43
0.00000001
 40
0.0
 40
0.0
 40
0.0
 40
0.0
 40
0.2448071324617555
 40
0.4896111731679167
 40
0.734495443034831
 40
0.9794319748546108
 40
1.0
 40
1.0
 40
1.0
 40
1.0
 10
4.182910906567703
 20
24.41957881952834
 30
0.0
 10
4.193434230064082
 20
24.41886915593134
 30
0.0
 10
4.214480744154079
 20
24.41744983769994
 30
0.0
 10
4.242769429185866
 20
24.40638934318884
 30
0.0
 10
4.263212212465079
 20
24.38986034956621
 30
0.0
 10
4.274004978557546
 20
24.37566762616138
 30
0.0
 10
4.274473274724904
 20
24.36763098510512
 30
0.0
 10
4.27450955254799
 20
24.36700840507403
 30
0.0
  0
SPLINE
  5
100
330
1F
100
AcDbEntity
  8
0
  6
Continuous
 62
     7
370
    30
100
AcDbSpline
210
0.0
220
0.0
230
1.0
 70
     8
 71
     3
 72
    12
 73
     8
 74
     0
 42
0.00000001
 43
0.00000001
 40
0.0
 40
0.0
 40
0.0
 40
0.0
 40
0.1176040216146221
 40
0.360651157423692
 40
0.6038085481269829
 40
0.8470138896619408
 40
1.0
 40
1.0
 40
1.0
 40
1.0
 10
4.092050023980902
 20
24.36625462055402
 30
0.0
 10
4.092717576686468
 20
24.36981736305417
 30
0.0
 10
4.094764731644251
 20
24.38074307110936
 30
0.0
 10
4.109238397541549
 20
24.39661737464525
 30
0.0
 10
4.132942905985519
 20
24.41113623751734
 30
0.0
 10
4.159193965186975
 20
24.41855323743422
 30
0.0
 10
4.176304004063627
 20
24.41929311991822
 30
0.0
 10
4.182910906567703
 20
24.41957881952834
 30
0.0
  0
SPLINE
  5
101
330
1F
100
AcDbEntity
  8
0
  6
Continuous
 62
     7
370
    30
100
AcDbSpline
210
0.0
220
0.0
230
1.0
 70
     8
 71
     3
 72
    16
 73
    12
 74
     0
 42
0.00000001
 43
0.00000001
 40
0.0
 40
0.0
 40
0.0
 40
0.0
 40
0.0967827834644958
 40
0.2184344630822887
 40
0.3401414475835937
 40
0.4618492733044347
 40
0.5835020858891369
 40
0.7051299239712626
 40
0.8268017840825568
 40
0.9485179632401013
 40
1.0
 40
1.0
 40
1.0
 40
1.0
 10
4.274229865339327
 20
20.23622115866945
 30
0.0
 10
4.272383697000234
 20
20.23045822595459
 30
0.0
 10
4.268216976686208
 20
20.21745154162201
 30
0.0
 10
4.249943944820051
 20
20.20075972658478
 30
0.0
 10
4.223938693083431
 20
20.18804681740023
 30
0.0
 10
4.192982099637576
 20
20.18210751646211
 30
0.0
 10
4.161023715408128
 20
20.18348636410655
 30
0.0
 10
4.131350175500648
 20
20.19202651885917
 30
0.0
 10
4.108104110213763
 20
20.20696380572676
 30
0.0
 10
4.094276781624809
 20
20.22260340161644
 30
0.0
 10
4.092549727201887
 20
20.23310907495494
 30
0.0
 10
4.092036371571658
 20
20.23623181763525
 30
0.0
  0
ARC
  5
102
330
1F
100
AcDbEntity
  8
0
  6
Continuous
 62
     7
370
    30
100
AcDbCircle
 10
38.1209109066
 20
17.8642735253
 30
0.0
 40
0.0470000000000041
100
AcDbArc
 50
180.0
 51
283.0269951086
  0
ARC
  5
103
330
1F
100
AcDbEntity
  8
0
  6
Continuous
 62
     7
370
    30
100
AcDbCircle
 10
38.1209109066
 20
17.8642735253
 30
0.0
 40
0.0470000000000041
100
AcDbArc
 50
31.7332749943
 51
180.0
  0
LWPOLYLINE
  5
104
330
1F
100
AcDbEntity
  8
0
  6
Continuous
 62
     7
370
    30
100
AcDbPolyline
 90
        3
 70
   128
 43
0.0
 10
38.467462379
 20
8.3774472045
 10
38.4757012745
 20
8.3844831574
 10
38.4827866215
 20
8.3927901401
  0
LINE
  5
105
330
1F
100
AcDbEntity
  8
0
  6
Continuous
 62
     7
370
    30
100
AcDbLine
 10
4.7973955502
 20
8.3271123749
 30
0.0
 11
4.7859109066
 21
8.3271123749
 31
0.0
  0
LINE
  5
106
330
1F
100
AcDbEntity
  8
0
  6
Continuous
 62
     7
370
    30
100
AcDbLine
 10
4.7859109066
 20
8.3921123749
 30
0.0
 11
4.7859109066
 21
8.3271123749
 31
0.0
  0
LINE
  5
107
330
1F
100
AcDbEntity
  8
0
  6
Continuous
 62
     7
370
    30
100
AcDbLine
 10
22.8374262629
 20
8.2592735253
 30
0.0
 11
38.4680720569
 21
8.2592735253
 31
0.0
  0
LINE
  5
108
330
1F
100
AcDbEntity
  8
0
  6
Continuous
 62
     7
370
    30
100
AcDbLine
 10
22.8374262629
 20
8.2992735253
 30
0.0
 11
38.4680720569
 21
8.2992735253
 31
0.0
  0
LINE
  5
109
330
1F
100
AcDbEntity
  8
0
  6
Continuous
 62
     7
370
    30
100
AcDbLine
 10
38.4680720569
 20
8.2992735253
 30
0.0
 11
38.4680720569
 21
8.2592735253
 31
0.0
  0
LINE
  5
10A
330
1F
100
AcDbEntity
  8
0
  6
Continuous
 62
     7
370
    30
100
AcDbLine
 10
38.4959109066
 20
8.3271123749
 30
0.0
 11
38.5359109066
 21
8.3271123749
 31
0.0
  0
LINE
  5
10B
330
1F
100
AcDbEntity
  8
0
  6
Continuous
 62
     7
370
    30
100
AcDbLine
 10
38.4959109066
 20
8.3271123749
 30
0.0
 11
38.4959109066
 21
8.3921123749
 31
0.0
  0
LINE
  5
10C
330
1F
100
AcDbEntity
  8
0
  6
Continuous
 62
     7
370
    30
100
AcDbLine
 10
38.5359109066
 20
8.3271123749
 30
0.0
 11
38.5359109066
 21
8.3921123749
 31
0.0
  0
SPLINE
  5
10D
330
1F
100
AcDbEntity
  8
0
  6
Continuous
 62
     7
370
    30
100
AcDbSpline
210
0.0
220
0.0
230
1.0
 70
     8
 71
     3
 72
    11
 73
     7
 74
     0
 42
0.00000001
 43
0.00000001
 40
0.0
 40
0.0
 40
0.0
 40
0.0
 40
0.2129609038008649
 40
0.4753072692006075
 40
0.7376536346002959
 40
0.9999999999999999
 40
0.9999999999999999
 40
0.9999999999999999
 40
0.9999999999999999
 10
38.4680720569147
 20
8.329171818694375
 30
0.0
 10
38.47125492724013
 20
8.329025625025798
 30
0.0
 10
38.47835877294887
 20
8.328699335494973
 30
0.0
 10
38.48761123237934
 20
8.3281929501019
 30
0.0
 10
38.49456040407786
 20
8.327652662515153
 30
0.0
 10
38.49546073907111
 20
8.32729247079066
 30
0.0
 10
38.49591090656774
 20
8.327112374928408
 30
0.0
  0
SPLINE
  5
10E
330
1F
100
AcDbEntity
  8
0
  6
Continuous
 62
     7
370
    30
100
AcDbSpline
210
0.0
220
0.0
230
1.0
 70
     8
 71
     3
 72
    11
 73
     7
 74
     0
 42
0.00000001
 43
0.00000001
 40
0.0
 40
0.0
 40
0.0
 40
0.0
 40
0.2805459077521674
 40
0.5610918155043546
 40
0.8416377232565224
 40
1.0
 40
1.0
 40
1.0
 40
1.0
 10
38.46807205691473
 20
8.299273525275392
 30
0.0
 10
38.46789196105248
 20
8.299722356913001
 30
0.0
 10
38.46753176932798
 20
8.30062002018822
 30
0.0
 10
38.46699148174122
 20
8.307589229772065
 30
0.0
 10
38.46652962968241
 20
8.315962905114587
 30
0.0
 10
38.46624787348583
 20
8.322070019802945
 30
0.0
 10
38.46614621315149
 20
8.324273525275265
 30
0.0
  0
ARC
  5
10F
330
1F
100
AcDbEntity
  8
0
  6
Continuous
 62
     7
370
    30
100
AcDbCircle
 10
38.0669109066
 20
17.8217735253
 30
0.0
 40
0.0939999999999987
100
AcDbArc
 50
20.2272604766
 51
66.743794221
  0
SPLINE
  5
110
330
1F
100
AcDbEntity
  8
0
  6
Continuous
 62
     7
370
    30
100
AcDbSpline
210
0.0
220
0.0
230
1.0
 70
     8
 71
     3
 72
    11
 73
     7
 74
     0
 42
0.00000001
 43
0.00000001
 40
0.0
 40
0.0
 40
0.0
 40
0.0
 40
0.2500000000000047
 40
0.5000000000000021
 40
0.7500000000000007
 40
1.0
 40
1.0
 40
1.0
 40
1.0
 10
38.46591090656771
 20
8.394273525275263
 30
0.0
 10
38.46609100242996
 20
8.385100932208829
 30
0.0
 10
38.46645119415447
 20
8.366755746075953
 30
0.0
 10
38.46699148174121
 20
8.343617600479167
 30
0.0
 10
38.46753176932796
 20
8.327430155560602
 30
0.0
 10
38.46789196105244
 20
8.325325735370377
 30
0.0
 10
38.4680720569147
 20
8.324273525275265
 30
0.0
  0
LINE
  5
111
330
1F
100
AcDbEntity
  8
0
  6
Continuous
 62
     7
370
    30
100
AcDbLine
 10
22.8374262629
 20
8.3242735253
 30
0.0
 11
38.4680720569
 21
8.3242735253
 31
0.0
  0
LINE
  5
112
330
1F
100
AcDbEntity
  8
0
  6
Continuous
 62
     7
370
    30
100
AcDbLine
 10
38.4680720569
 20
8.3242735253
 30
0.0
 11
38.4680720569
 21
8.3642735253
 31
0.0
  0
SPLINE
  5
113
330
1F
100
AcDbEntity
  8
0
  6
Continuous
 62
     7
370
    30
100
AcDbSpline
210
0.0
220
0.0
230
1.0
 70
     8
 71
     3
 72
    11
 73
     7
 74
     0
 42
0.00000001
 43
0.00000001
 40
0.0
 40
0.0
 40
0.0
 40
0.0
 40
0.250000000000006
 40
0.5000000000000128
 40
0.7500000000000069
 40
1.0
 40
1.0
 40
1.0
 40
1.0
 10
38.53591090656771
 20
8.392112374928278
 30
0.0
 10
38.5348586964726
 20
8.392292470790528
 30
0.0
 10
38.53275427628237
 20
8.392652662515026
 30
0.0
 10
38.51656683136381
 20
8.393192950101772
 30
0.0
 10
38.49342868576703
 20
8.393733237688517
 30
0.0
 10
38.47508349963416
 20
8.394093429413017
 30
0.0
 10
38.46591090656772
 20
8.394273525275263
 30
0.0
  0
LINE
  5
114
330
1F
100
AcDbEntity
  8
0
  6
Continuous
 62
     7
370
    30
100
AcDbLine
 10
38.5359109066
 20
8.3921123749
 30
0.0
 11
38.4959109066
 21
8.3921123749
 31
0.0
  0
SPLINE
  5
115
330
1F
100
AcDbEntity
  8
0
  6
Continuous
 62
     7
370
    30
100
AcDbSpline
210
0.0
220
0.0
230
1.0
 70
     8
 71
     3
 72
    11
 73
     7
 74
     0
 42
0.00000001
 43
0.00000001
 40
0.0
 40
0.0
 40
0.0
 40
0.0
 40
0.2500000000000021
 40
0.5000000000000027
 40
0.7500000000000092
 40
0.9999999999999999
 40
0.9999999999999999
 40
0.9999999999999999
 40
0.9999999999999999
 10
38.4680720569147
 20
27.44927352527526
 30
0.0
 10
38.46789196105245
 20
27.44822131518015
 30
0.0
 10
38.46753176932795
 20
27.44611689498993
 30
0.0
 10
38.4669914817412
 20
27.42992945007136
 30
0.0
 10
38.46645119415447
 20
27.40679130447458
 30
0.0
 10
38.46609100242996
 20
27.3884461183417
 30
0.0
 10
38.46591090656771
 20
27.37927352527527
 30
0.0
  0
LINE
  5
116
330
1F
100
AcDbEntity
  8
0
  6
Continuous
 62
     7
370
    30
100
AcDbLine
 10
38.4680720569
 20
27.4492735253
 30
0.0
 11
38.4680720569
 21
27.4092735253
 31
0.0
  0
SPLINE
  5
117
330
1F
100
AcDbEntity
  8
0
  6
Continuous
 62
     7
370
    30
100
AcDbSpline
210
0.0
220
0.0
230
1.0
 70
     8
 71
     3
 72
     9
 73
     5
 74
     0
 42
0.00000001
 43
0.00000001
 40
0.0
 40
0.0
 40
0.0
 40
0.0
 40
0.7113866224096868
 40
1.0
 40
1.0
 40
1.0
 40
1.0
 10
4.785910906567717
 20
27.38143467562225
 30
0.0
 10
4.786519705689246
 20
27.38125457976
 30
0.0
 10
4.787375497887678
 20
27.38100141803813
 30
0.0
 10
4.79515133859304
 20
27.38074825631625
 30
0.0
 10
4.797395550242624
 20
27.38067519045662
 30
0.0
  0
LINE
  5
118
330
1F
100
AcDbEntity
  8
0
  6
Continuous
 62
     7
370
    30
100
AcDbLine
 10
4.7859109066
 20
27.3814346756
 30
0.0
 11
4.7973955502
 21
27.3814346756
 31
0.0
  0
LINE
  5
119
330
1F
100
AcDbEntity
  8
0
  6
Continuous
 62
     7
370
    30
100
AcDbLine
 10
22.8374262629
 20
27.4492735253
 30
0.0
 11
38.4680720569
 21
27.4492735253
 31
0.0
  0
SPLINE
  5
11A
330
1F
100
AcDbEntity
  8
0
  6
Continuous
 62
     7
370
    30
100
AcDbSpline
210
0.0
220
0.0
230
1.0
 70
     8
 71
     3
 72
    11
 73
     7
 74
     0
 42
0.00000001
 43
0.00000001
 40
0.0
 40
0.0
 40
0.0
 40
0.0
 40
0.2500000000000118
 40
0.4999999999999822
 40
0.750000000000002
 40
1.0
 40
1.0
 40
1.0
 40
1.0
 10
38.4659109065677
 20
27.37927352527527
 30
0.0
 10
38.47508349963415
 20
27.37945362113751
 30
0.0
 10
38.49342868576701
 20
27.37981381286201
 30
0.0
 10
38.5165668313638
 20
27.38035410044876
 30
0.0
 10
38.53275427628238
 20
27.3808943880355
 30
0.0
 10
38.5348586964726
 20
27.38125457976
 30
0.0
 10
38.53591090656771
 20
27.38143467562225
 30
0.0
  0
LINE
  5
11B
330
1F
100
AcDbEntity
  8
0
  6
Continuous
 62
     7
370
    30
100
AcDbLine
 10
38.5359109066
 20
27.3814346756
 30
0.0
 11
38.4959109066
 21
27.3814346756
 31
0.0
  0
LINE
  5
11C
330
1F
100
AcDbEntity
  8
0
  6
Continuous
 62
     7
370
    30
100
AcDbLine
 10
38.4659109066
 20
8.3942735253
 30
0.0
 11
38.4659109066
 21
27.3792735253
 31
0.0
  0
CIRCLE
  5
11D
330
1F
100
AcDbEntity
  8
0
  6
Continuous
 62
     7
370
    30
100
AcDbCircle
 10
26.9109109066
 20
8.8552735253
 30
0.0
 40
0.0940000000000012
  0
CIRCLE
  5
11E
330
1F
100
AcDbEntity
  8
0
  6
Continuous
 62
     7
370
    30
100
AcDbCircle
 10
16.4109109066
 20
8.8552735253
 30
0.0
 40
0.094000000000003
  0
CIRCLE
  5
11F
330
1F
100
AcDbEntity
  8
0
  6
Continuous
 62
     7
370
    30
100
AcDbCircle
 10
5.9109109066
 20
8.8552735253
 30
0.0
 40
0.0939999999999976
  0
CIRCLE
  5
120
330
1F
100
AcDbEntity
  8
0
  6
Continuous
 62
     7
370
    30
100
AcDbCircle
 10
16.4109109066
 20
26.9182735253
 30
0.0
 40
0.0940000000000012
  0
CIRCLE
  5
121
330
1F
100
AcDbEntity
  8
0
  6
Continuous
 62
     7
370
    30
100
AcDbCircle
 10
37.4109109066
 20
26.9182735253
 30
0.0
 40
0.0940000000000012
  0
CIRCLE
  5
122
330
1F
100
AcDbEntity
  8
0
  6
Continuous
 62
     7
370
    30
100
AcDbCircle
 10
38.0669109066
 20
25.8867735253
 30
0.0
 40
0.0939999999999976
  0
CIRCLE
  5
123
330
1F
100
AcDbEntity
  8
0
  6
Continuous
 62
     7
370
    30
100
AcDbCircle
 10
5.2549109066
 20
25.8867735253
 30
0.0
 40
0.0939999999999976
  0
CIRCLE
  5
124
330
1F
100
AcDbEntity
  8
0
  6
Continuous
 62
     7
370
    30
100
AcDbCircle
 10
5.2549109066
 20
9.8867735253
 30
0.0
 40
0.0939999999999959
  0
CIRCLE
  5
125
330
1F
100
AcDbEntity
  8
0
  6
Continuous
 62
     7
370
    30
100
AcDbCircle
 10
37.4109109066
 20
8.8552735253
 30
0.0
 40
0.0940000000000012
  0
CIRCLE
  5
126
330
1F
100
AcDbEntity
  8
0
  6
Continuous
 62
     7
370
    30
100
AcDbCircle
 10
5.9109109066
 20
26.9182735253
 30
0.0
 40
0.0939999999999976
  0
CIRCLE
  5
127
330
1F
100
AcDbEntity
  8
0
  6
Continuous
 62
     7
370
    30
100
AcDbCircle
 10
26.9109109066
 20
26.9182735253
 30
0.0
 40
0.0940000000000012
  0
CIRCLE
  5
128
330
1F
100
AcDbEntity
  8
0
  6
Continuous
 62
     7
370
    30
100
AcDbCircle
 10
38.0669109066
 20
9.8867735253
 30
0.0
 40
0.0939999999999976
  0
CIRCLE
  5
129
330
1F
100
AcDbEntity
  8
0
  6
Continuous
 62
     7
370
    30
100
AcDbCircle
 10
5.2549109066
 20
17.8867735253
 30
0.0
 40
0.0940000000000012
  0
CIRCLE
  5
12A
330
1F
100
AcDbEntity
  8
0
  6
Continuous
 62
     7
370
    30
100
AcDbCircle
 10
38.0669109066
 20
17.8867735253
 30
0.0
 40
0.0940000000000012
  0
SPLINE
  5
12B
330
1F
100
AcDbEntity
  8
0
  6
Continuous
 62
     7
370
    30
100
AcDbSpline
210
0.0
220
0.0
230
1.0
 70
     8
 71
     3
 72
     9
 73
     5
 74
     0
 42
0.00000001
 43
0.00000001
 40
0.0
 40
0.0
 40
0.0
 40
0.0
 40
0.3118688080455266
 40
1.0
 40
1.0
 40
1.0
 40
1.0
 10
4.798116408992297
 20
8.392897526935721
 30
0.0
 10
4.795592117466023
 20
8.392815905462157
 30
0.0
 10
4.787498036040898
 20
8.392554188126343
 30
0.0
 10
4.786557866532303
 20
8.392292470790528
 30
0.0
 10
4.785910906567719
 20
8.392112374928278
 30
0.0
  0
LINE
  5
12C
330
1F
100
AcDbEntity
  8
0
  6
Continuous
 62
     7
370
    30
100
AcDbLine
 10
4.7859109066
 20
27.3814346756
 30
0.0
 11
4.7859109066
 21
8.3921123749
 31
0.0
  0
LINE
  5
12D
330
1F
100
AcDbEntity
  8
0
  6
Continuous
 62
     7
370
    30
100
AcDbLine
 10
4.7859109066
 20
8.3921123749
 30
0.0
 11
4.7911173974
 21
8.3921123749
 31
0.0
  0
LINE
  5
12E
330
1F
100
AcDbEntity
  8
0
  6
Continuous
 62
     7
370
    30
100
AcDbLine
 10
38.5359109066
 20
8.3921123749
 30
0.0
 11
38.5359109066
 21
27.3814346756
 31
0.0
  0
LINE
  5
12F
330
1F
100
AcDbEntity
  8
0
  6
Continuous
 62
     7
370
    30
100
AcDbLine
 10
38.5639109066
 20
14.9892735253
 30
0.0
 11
38.5639109066
 21
20.7392735253
 31
0.0
  0
LINE
  5
130
330
1F
100
AcDbEntity
  8
0
  6
Continuous
 62
     7
370
    30
100
AcDbLine
 10
38.5639109066
 20
14.9892735253
 30
0.0
 11
38.5359109066
 21
14.9892735253
 31
0.0
  0
LINE
  5
131
330
1F
100
AcDbEntity
  8
0
  6
Continuous
 62
     7
370
    30
100
AcDbLine
 10
38.5639109066
 20
20.7392735253
 30
0.0
 11
38.5359109066
 21
20.7392735253
 31
0.0
  0
LINE
  5
132
330
1F
100
AcDbEntity
  8
0
  6
Continuous
 62
     7
370
    30
100
AcDbLine
 10
42.4959109066
 20
14.9892735253
 30
0.0
 11
43.1049109066
 21
15.5982735253
 31
0.0
  0
LINE
  5
133
330
1F
100
AcDbEntity
  8
0
  6
Continuous
 62
     7
370
    30
100
AcDbLine
 10
42.4959109066
 20
14.9892735253
 30
0.0
 11
38.5639109066
 21
14.9892735253
 31
0.0
  0
LINE
  5
134
330
1F
100
AcDbEntity
  8
0
  6
Continuous
 62
     7
370
    30
100
AcDbLine
 10
42.4959109066
 20
20.7392735253
 30
0.0
 11
38.5639109066
 21
20.7392735253
 31
0.0
  0
LINE
  5
135
330
1F
100
AcDbEntity
  8
0
  6
Continuous
 62
     7
370
    30
100
AcDbLine
 10
43.1049109066
 20
20.1302735253
 30
0.0
 11
42.4959109066
 21
20.7392735253
 31
0.0
  0
LINE
  5
136
330
1F
100
AcDbEntity
  8
0
  6
Continuous
 62
     7
370
    30
100
AcDbLine
 10
43.1049109066
 20
15.5982735253
 30
0.0
 11
43.1049109066
 21
20.1302735253
 31
0.0
  0
CIRCLE
  5
137
330
1F
100
AcDbEntity
  8
0
  6
Continuous
 62
     7
370
    30
100
AcDbCircle
 10
38.9799109066
 20
15.3332735253
 30
0.0
 40
0.09375
  0
CIRCLE
  5
138
330
1F
100
AcDbEntity
  8
0
  6
Continuous
 62
     7
370
    30
100
AcDbCircle
 10
40.4339109066
 20
16.8642735253
 30
0.0
 40
0.09375
  0
CIRCLE
  5
139
330
1F
100
AcDbEntity
  8
0
  6
Continuous
 62
     7
370
    30
100
AcDbCircle
 10
41.3549109066
 20
15.3332735253
 30
0.0
 40
0.09375
  0
CIRCLE
  5
13A
330
1F
100
AcDbEntity
  8
0
  6
Continuous
 62
     7
370
    30
100
AcDbCircle
 10
41.3549109066
 20
20.3952735253
 30
0.0
 40
0.09375
  0
CIRCLE
  5
13B
330
1F
100
AcDbEntity
  8
0
  6
Continuous
 62
     7
370
    30
100
AcDbCircle
 10
40.4339109066
 20
18.8642735253
 30
0.0
 40
0.09375
  0
CIRCLE
  5
13C
330
1F
100
AcDbEntity
  8
0
  6
Continuous
 62
     7
370
    30
100
AcDbCircle
 10
38.9799109066
 20
20.3952735253
 30
0.0
 40
0.09375
  0
CIRCLE
  5
13D
330
1F
100
AcDbEntity
  8
0
  6
Continuous
 62
     7
370
    30
100
AcDbCircle
 10
5.2459109066
 20
17.8642735253
 30
0.0
 40
0.0470000000000006
  0
CIRCLE
  5
13E
330
1F
100
AcDbEntity
  8
0
  6
Continuous
 62
     7
370
    30
100
AcDbCircle
 10
5.2459109066
 20
9.8642735253
 30
0.0
 40
0.0469999999999979
  0
CIRCLE
  5
13F
330
1F
100
AcDbEntity
  8
0
  6
Continuous
 62
     7
370
    30
100
AcDbCircle
 10
5.2459109066
 20
25.8642735253
 30
0.0
 40
0.0470000000000006
  0
SPLINE
  5
140
330
1F
100
AcDbEntity
  8
0
  6
Continuous
 62
     7
370
    30
100
AcDbSpline
210
0.0
220
0.0
230
1.0
 70
     8
 71
     3
 72
    11
 73
     7
 74
     0
 42
0.00000001
 43
0.00000001
 40
0.0
 40
0.0
 40
0.0
 40
0.0
 40
0.2500000000000078
 40
0.5000000000000024
 40
0.7500000000000071
 40
1.0
 40
1.0
 40
1.0
 40
1.0
 10
22.83742626289272
 20
8.370273525275184
 30
0.0
 10
22.83690015784517
 20
8.370687632554343
 30
0.0
 10
22.83584794775006
 20
8.371515847112665
 30
0.0
 10
22.82775422529077
 20
8.372758168950142
 30
0.0
 10
22.81618515249238
 20
8.374000490787617
 30
0.0
 10
22.80701255942594
 20
8.374828705345932
 30
0.0
 10
22.80242626289272
 20
8.375242812625093
 30
0.0
  0
LINE
  5
141
330
1F
100
AcDbEntity
  8
0
  6
Continuous
 62
     7
370
    30
100
AcDbLine
 10
22.8374262629
 20
8.3702735253
 30
0.0
 11
22.8374262629
 21
2.079758169
 31
0.0
  0
LINE
  5
142
330
1F
100
AcDbEntity
  8
0
  6
Continuous
 62
     7
370
    30
100
AcDbLine
 10
22.8024262629
 20
2.079758169
 30
0.0
 11
22.8374262629
 21
2.079758169
 31
0.0
  0
LINE
  5
143
330
1F
100
AcDbEntity
  8
0
  6
Continuous
 62
     7
370
    30
100
AcDbLine
 10
22.8024262629
 20
8.3752428126
 30
0.0
 11
22.8024262629
 21
2.079758169
 31
0.0
  0
SPLINE
  5
144
330
1F
100
AcDbEntity
  8
0
  6
Continuous
 62
     7
370
    30
100
AcDbSpline
210
0.0
220
0.0
230
1.0
 70
     8
 71
     3
 72
    11
 73
     7
 74
     0
 42
0.00000001
 43
0.00000001
 40
0.0
 40
0.0
 40
0.0
 40
0.0
 40
0.2500000000000167
 40
0.4999999999999923
 40
0.7500000000000084
 40
1.0
 40
1.0
 40
1.0
 40
1.0
 10
4.846426262892719
 20
8.389273525275295
 30
0.0
 10
4.846633316532302
 20
8.3915652005298
 30
0.0
 10
4.847047423811463
 20
8.39614855103881
 30
0.0
 10
4.847668584730199
 20
8.402742389844635
 30
0.0
 10
4.848289745648933
 20
8.40888656203111
 30
0.0
 10
4.848703852928096
 20
8.412310362421591
 30
0.0
 10
4.848910906567675
 20
8.414022262616829
 30
0.0
  0
SPLINE
  5
145
330
1F
100
AcDbEntity
  8
0
  6
Continuous
 62
     7
370
    30
100
AcDbSpline
210
0.0
220
0.0
230
1.0
 70
     8
 71
     3
 72
    11
 73
     7
 74
     0
 42
0.00000001
 43
0.00000001
 40
0.0
 40
0.0
 40
0.0
 40
0.0
 40
0.2499970384564208
 40
0.4999980256375973
 40
0.749999012818801
 40
1.0
 40
1.0
 40
1.0
 40
1.0
 10
4.848910896725153
 20
8.414022339615709
 30
0.0
 10
4.848703846369213
 20
8.415551329436434
 30
0.0
 10
4.848289742386958
 20
8.418609333228414
 30
0.0
 10
4.84766858472795
 20
8.421790240848756
 30
0.0
 10
4.84704742381203
 20
8.423885573603105
 30
0.0
 10
4.846633316532491
 20
8.424144208051231
 30
0.0
 10
4.846426262892719
 20
8.424273525275295
 30
0.0
  0
LINE
  5
146
330
1F
100
AcDbEntity
  8
0
  6
Continuous
 62
     7
370
    30
100
AcDbLine
 10
4.8464262629
 20
8.4242735253
 30
0.0
 11
22.7883955502
 21
8.4242735253
 31
0.0
  0
SPLINE
  5
147
330
1F
100
AcDbEntity
  8
0
  6
Continuous
 62
     7
370
    30
100
AcDbSpline
210
0.0
220
0.0
230
1.0
 70
     8
 71
     3
 72
    11
 73
     7
 74
     0
 42
0.00000001
 43
0.00000001
 40
0.0
 40
0.0
 40
0.0
 40
0.0
 40
0.2499970384557621
 40
0.4999980256371716
 40
0.7499990128185727
 40
0.9999999999999999
 40
0.9999999999999999
 40
0.9999999999999999
 40
0.9999999999999999
 10
22.7859109164102
 20
8.414022339615618
 30
0.0
 10
22.78611796676614
 20
8.415551329436338
 30
0.0
 10
22.78653207074839
 20
8.418609333228309
 30
0.0
 10
22.7871532284074
 20
8.421790240848646
 30
0.0
 10
22.78777438932333
 20
8.423885573602988
 30
0.0
 10
22.78818849660287
 20
8.42414420805112
 30
0.0
 10
22.78839555024263
 20
8.424273525275185
 30
0.0
  0
SPLINE
  5
148
330
1F
100
AcDbEntity
  8
0
  6
Continuous
 62
     7
370
    30
100
AcDbSpline
210
0.0
220
0.0
230
1.0
 70
     8
 71
     3
 72
    11
 73
     7
 74
     0
 42
0.00000001
 43
0.00000001
 40
0.0
 40
0.0
 40
0.0
 40
0.0
 40
0.2500000000000059
 40
0.499999999999985
 40
0.7500000000000047
 40
1.0
 40
1.0
 40
1.0
 40
1.0
 10
22.78839555024263
 20
8.389273525275184
 30
0.0
 10
22.78818849660306
 20
8.391565200529689
 30
0.0
 10
22.7877743893239
 20
8.3961485510387
 30
0.0
 10
22.78715322840515
 20
8.402742389844526
 30
0.0
 10
22.78653206748642
 20
8.408886562031004
 30
0.0
 10
22.78611796020726
 20
8.41231036242148
 30
0.0
 10
22.78591090656768
 20
8.41402226261672
 30
0.0
  0
LINE
  5
149
330
1F
100
AcDbEntity
  8
0
  6
Continuous
 62
     7
370
    30
100
AcDbLine
 10
4.8464262629
 20
8.3892735253
 30
0.0
 11
22.7883955502
 21
8.3892735253
 31
0.0
  0
ARC
  5
14A
330
1F
100
AcDbEntity
  8
0
  6
Continuous
 62
     7
370
    30
100
AcDbCircle
 10
16.8174109066
 20
5.173258169
 30
0.0
 40
0.4375000000000027
100
AcDbArc
 50
278.2793756981
 51
81.7206243019
  0
LINE
  5
14B
330
1F
100
AcDbEntity
  8
0
  6
Continuous
 62
     7
370
    30
100
AcDbLine
 10
16.8804109066
 20
5.5431984073
 30
0.0
 11
16.8804109066
 21
5.6061984073
 31
0.0
  0
LINE
  5
14C
330
1F
100
AcDbEntity
  8
0
  6
Continuous
 62
     7
370
    30
100
AcDbLine
 10
16.7544109066
 20
5.5431984073
 30
0.0
 11
16.8804109066
 21
5.5431984073
 31
0.0
  0
LINE
  5
14D
330
1F
100
AcDbEntity
  8
0
  6
Continuous
 62
     7
370
    30
100
AcDbLine
 10
16.7544109066
 20
5.6061984073
 30
0.0
 11
16.7544109066
 21
5.5431984073
 31
0.0
  0
ARC
  5
14E
330
1F
100
AcDbEntity
  8
0
  6
Continuous
 62
     7
370
    30
100
AcDbCircle
 10
16.8174109066
 20
5.173258169
 30
0.0
 40
0.4375000000000017
100
AcDbArc
 50
98.2793756981
 51
261.7206243019
  0
LINE
  5
14F
330
1F
100
AcDbEntity
  8
0
  6
Continuous
 62
     7
370
    30
100
AcDbLine
 10
16.7544109066
 20
4.8030468706
 30
0.0
 11
16.7544109066
 21
4.7403179306
 31
0.0
  0
LINE
  5
150
330
1F
100
AcDbEntity
  8
0
  6
Continuous
 62
     7
370
    30
100
AcDbLine
 10
16.8804109066
 20
4.8033180765
 30
0.0
 11
16.7544109066
 21
4.8030468706
 31
0.0
  0
LINE
  5
151
330
1F
100
AcDbEntity
  8
0
  6
Continuous
 62
     7
370
    30
100
AcDbLine
 10
16.8804109066
 20
4.7403179306
 30
0.0
 11
16.8804109066
 21
4.8033180765
 31
0.0
  0
ARC
  5
152
330
1F
100
AcDbEntity
  8
0
  6
Continuous
 62
     7
370
    30
100
AcDbCircle
 10
10.8174109066
 20
5.173258169
 30
0.0
 40
0.4375000000000019
100
AcDbArc
 50
278.2793756981
 51
81.7206243019
  0
LINE
  5
153
330
1F
100
AcDbEntity
  8
0
  6
Continuous
 62
     7
370
    30
100
AcDbLine
 10
10.8804109066
 20
5.5431984073
 30
0.0
 11
10.8804109066
 21
5.6061984073
 31
0.0
  0
LINE
  5
154
330
1F
100
AcDbEntity
  8
0
  6
Continuous
 62
     7
370
    30
100
AcDbLine
 10
10.7544109066
 20
5.5431984073
 30
0.0
 11
10.8804109066
 21
5.5431984073
 31
0.0
  0
LINE
  5
155
330
1F
100
AcDbEntity
  8
0
  6
Continuous
 62
     7
370
    30
100
AcDbLine
 10
10.7544109066
 20
5.6061984073
 30
0.0
 11
10.7544109066
 21
5.5431984073
 31
0.0
  0
ARC
  5
156
330
1F
100
AcDbEntity
  8
0
  6
Continuous
 62
     7
370
    30
100
AcDbCircle
 10
10.8174109066
 20
5.173258169
 30
0.0
 40
0.4375000000000027
100
AcDbArc
 50
98.2793756981
 51
261.7206243019
  0
LINE
  5
157
330
1F
100
AcDbEntity
  8
0
  6
Continuous
 62
     7
370
    30
100
AcDbLine
 10
10.7544109066
 20
4.8030468706
 30
0.0
 11
10.7544109066
 21
4.7403179306
 31
0.0
  0
LINE
  5
158
330
1F
100
AcDbEntity
  8
0
  6
Continuous
 62
     7
370
    30
100
AcDbLine
 10
10.8804109066
 20
4.8033180765
 30
0.0
 11
10.7544109066
 21
4.8030468706
 31
0.0
  0
LINE
  5
159
330
1F
100
AcDbEntity
  8
0
  6
Continuous
 62
     7
370
    30
100
AcDbLine
 10
10.8804109066
 20
4.7403179306
 30
0.0
 11
10.8804109066
 21
4.8033180765
 31
0.0
  0
LINE
  5
15A
330
1F
100
AcDbEntity
  8
0
  6
Continuous
 62
     7
370
    30
100
AcDbLine
 10
4.8323955502
 20
8.3752428126
 30
0.0
 11
4.8464262629
 21
8.3892735253
 31
0.0
  0
LINE
  5
15B
330
1F
100
AcDbEntity
  8
0
  6
Continuous
 62
     7
370
    30
100
AcDbLine
 10
22.8024262629
 20
8.3752428126
 30
0.0
 11
22.7883955502
 21
8.3892735253
 31
0.0
  0
LINE
  5
15C
330
1F
100
AcDbEntity
  8
0
  6
Continuous
 62
     7
370
    30
100
AcDbLine
 10
22.7124262629
 20
2.079758169
 30
0.0
 11
22.8024262629
 21
2.079758169
 31
0.0
  0
LINE
  5
15D
330
1F
100
AcDbEntity
  8
0
  6
Continuous
 62
     7
370
    30
100
AcDbLine
 10
4.8994262629
 20
2.079758169
 30
0.0
 11
4.8323955502
 21
2.079758169
 31
0.0
  0
LINE
  5
15E
330
1F
100
AcDbEntity
  8
0
  6
Continuous
 62
     7
370
    30
100
AcDbLine
 10
4.8323955502
 20
2.079758169
 30
0.0
 11
4.8323955502
 21
8.3752428126
 31
0.0
  0
LINE
  5
15F
330
1F
100
AcDbEntity
  8
0
  6
Continuous
 62
     7
370
    30
100
AcDbLine
 10
4.8323955502
 20
2.079758169
 30
0.0
 11
4.7973955502
 21
2.079758169
 31
0.0
  0
LINE
  5
160
330
1F
100
AcDbEntity
  8
0
  6
Continuous
 62
     7
370
    30
100
AcDbLine
 10
4.7973955502
 20
2.079758169
 30
0.0
 11
4.7973955502
 21
8.3702735253
 31
0.0
  0
SPLINE
  5
161
330
1F
100
AcDbEntity
  8
0
  6
Continuous
 62
     7
370
    30
100
AcDbSpline
210
0.0
220
0.0
230
1.0
 70
     8
 71
     3
 72
    11
 73
     7
 74
     0
 42
0.00000001
 43
0.00000001
 40
0.0
 40
0.0
 40
0.0
 40
0.0
 40
0.2499999999999977
 40
0.5000000000000067
 40
0.7499999999999943
 40
1.0
 40
1.0
 40
1.0
 40
1.0
 10
4.797395550242634
 20
8.370273525275294
 30
0.0
 10
4.797921655290191
 20
8.370687632554453
 30
0.0
 10
4.79897386538531
 20
8.37151584711277
 30
0.0
 10
4.807067587844596
 20
8.372758168950254
 30
0.0
 10
4.818636660642984
 20
8.374000490787731
 30
0.0
 10
4.827809253709417
 20
8.374828705346047
 30
0.0
 10
4.832395550242634
 20
8.375242812625206
 30
0.0
  0
LINE
  5
162
330
1F
100
AcDbEntity
  8
0
  6
Continuous
 62
     7
370
    30
100
AcDbLine
 10
4.8464262629
 20
8.3902735253
 30
0.0
 11
4.8464262629
 21
8.4242735253
 31
0.0
  0
LINE
  5
163
330
1F
100
AcDbEntity
  8
0
  6
Continuous
 62
     7
370
    30
100
AcDbLine
 10
22.7883955502
 20
8.3902735253
 30
0.0
 11
22.7883955502
 21
8.4242735253
 31
0.0
  0
LINE
  5
164
330
1F
100
AcDbEntity
  8
0
  6
Continuous
 62
     7
370
    30
100
AcDbLine
 10
22.8024262629
 20
8.3902735253
 30
0.0
 11
22.8024262629
 21
8.4242735253
 31
0.0
  0
LINE
  5
165
330
1F
100
AcDbEntity
  8
0
  6
Continuous
 62
     7
370
    30
100
AcDbLine
 10
22.7883955502
 20
8.3902735253
 30
0.0
 11
22.8024262629
 21
8.3902735253
 31
0.0
  0
LINE
  5
166
330
1F
100
AcDbEntity
  8
0
  6
Continuous
 62
     7
370
    30
100
AcDbLine
 10
22.7883955502
 20
8.4242735253
 30
0.0
 11
22.8024262629
 21
8.4242735253
 31
0.0
  0
LINE
  5
167
330
1F
100
AcDbEntity
  8
0
  6
Continuous
 62
     7
370
    30
100
AcDbLine
 10
4.8323955502
 20
8.3902735253
 30
0.0
 11
4.8323955502
 21
8.4242735253
 31
0.0
  0
LINE
  5
168
330
1F
100
AcDbEntity
  8
0
  6
Continuous
 62
     7
370
    30
100
AcDbLine
 10
4.8464262629
 20
8.3902735253
 30
0.0
 11
4.8323955502
 21
8.3902735253
 31
0.0
  0
LINE
  5
169
330
1F
100
AcDbEntity
  8
0
  6
Continuous
 62
     7
370
    30
100
AcDbLine
 10
4.8464262629
 20
8.4242735253
 30
0.0
 11
4.8323955502
 21
8.4242735253
 31
0.0
  0
SPLINE
  5
16A
330
1F
100
AcDbEntity
  8
0
  6
Continuous
 62
     7
370
    30
100
AcDbSpline
210
0.0
220
0.0
230
1.0
 70
     8
 71
     3
 72
    11
 73
     7
 74
     0
 42
0.00000001
 43
0.00000001
 40
0.0
 40
0.0
 40
0.0
 40
0.0
 40
0.2499999999999915
 40
0.4999999999999887
 40
0.7500000000000004
 40
1.0
 40
1.0
 40
1.0
 40
1.0
 10
4.832395550242631
 20
8.424273525275295
 30
0.0
 10
4.827809253709411
 20
8.423747420227738
 30
0.0
 10
4.818636660642968
 20
8.422695210132623
 30
0.0
 10
4.807067587844577
 20
8.414601487673334
 30
0.0
 10
4.798973865385288
 20
8.40303241487493
 30
0.0
 10
4.797921655290184
 20
8.393859821808489
 30
0.0
 10
4.79739555024263
 20
8.38927352527527
 30
0.0
  0
SPLINE
  5
16B
330
1F
100
AcDbEntity
  8
0
  6
Continuous
 62
     7
370
    30
100
AcDbSpline
210
0.0
220
0.0
230
1.0
 70
     8
 71
     3
 72
     9
 73
     5
 74
     0
 42
0.00000001
 43
0.00000001
 40
0.0
 40
0.0
 40
0.0
 40
0.0
 40
0.5000000000004254
 40
1.0
 40
1.0
 40
1.0
 40
1.0
 10
4.832395550242631
 20
8.390273525275296
 30
0.0
 10
4.832125330185372
 20
8.390210411999222
 30
0.0
 10
4.83158489007085
 20
8.390084185447076
 30
0.0
 10
4.831458663518702
 20
8.389543745332553
 30
0.0
 10
4.831395550242631
 20
8.389273525275293
 30
0.0
  0
LINE
  5
16C
330
1F
100
AcDbEntity
  8
0
  6
Continuous
 62
     7
370
    30
100
AcDbLine
 10
4.8313955502
 20
8.3892735253
 30
0.0
 11
4.7973955502
 21
8.3892735253
 31
0.0
  0
SPLINE
  5
16D
330
1F
100
AcDbEntity
  8
0
  6
Continuous
 62
     7
370
    30
100
AcDbSpline
210
0.0
220
0.0
230
1.0
 70
     8
 71
     3
 72
    11
 73
     7
 74
     0
 42
0.00000001
 43
0.00000001
 40
0.0
 40
0.0
 40
0.0
 40
0.0
 40
0.2500000000000069
 40
0.5000000000000085
 40
0.750000000000012
 40
1.0
 40
1.0
 40
1.0
 40
1.0
 10
22.80242626289273
 20
8.424273525275185
 30
0.0
 10
22.80701255942595
 20
8.42374742022763
 30
0.0
 10
22.81618515249238
 20
8.422695210132519
 30
0.0
 10
22.82775422529077
 20
8.414601487673231
 30
0.0
 10
22.83584794775006
 20
8.403032414874845
 30
0.0
 10
22.83690015784517
 20
8.393859821808409
 30
0.0
 10
22.83742626289273
 20
8.38927352527519
 30
0.0
  0
LINE
  5
16E
330
1F
100
AcDbEntity
  8
0
  6
Continuous
 62
     7
370
    30
100
AcDbLine
 10
22.8034262629
 20
8.3892735253
 30
0.0
 11
22.8374262629
 21
8.3892735253
 31
0.0
  0
SPLINE
  5
16F
330
1F
100
AcDbEntity
  8
0
  6
Continuous
 62
     7
370
    30
100
AcDbSpline
210
0.0
220
0.0
230
1.0
 70
     8
 71
     3
 72
     9
 73
     5
 74
     0
 42
0.00000001
 43
0.00000001
 40
0.0
 40
0.0
 40
0.0
 40
0.0
 40
0.4999999999999999
 40
0.9999999999999999
 40
0.9999999999999999
 40
0.9999999999999999
 40
0.9999999999999999
 10
22.80242626289273
 20
8.390273525275186
 30
0.0
 10
22.80269648294999
 20
8.390210411999112
 30
0.0
 10
22.80323692306451
 20
8.390084185446966
 30
0.0
 10
22.80336314961665
 20
8.389543745332444
 30
0.0
 10
22.80342626289273
 20
8.389273525275184
 30
0.0
  0
LINE
  5
170
330
1F
100
AcDbEntity
  8
0
  6
Continuous
 62
     7
370
    30
100
AcDbLine
 10
4.7973955502
 20
8.3892735253
 30
0.0
 11
4.7973955502
 21
8.3702735253
 31
0.0
  0
LINE
  5
171
330
1F
100
AcDbEntity
  8
0
  6
Continuous
 62
     7
370
    30
100
AcDbLine
 10
4.8313955502
 20
8.3892735253
 30
0.0
 11
4.8313955502
 21
8.37515006
 31
0.0
  0
LINE
  5
172
330
1F
100
AcDbEntity
  8
0
  6
Continuous
 62
     7
370
    30
100
AcDbLine
 10
22.8374262629
 20
8.3892735253
 30
0.0
 11
22.8374262629
 21
8.3702735253
 31
0.0
  0
LINE
  5
173
330
1F
100
AcDbEntity
  8
0
  6
Continuous
 62
     7
370
    30
100
AcDbLine
 10
22.8034262629
 20
8.3892735253
 30
0.0
 11
22.8034262629
 21
8.37515006
 31
0.0
  0
LINE
  5
174
330
1F
100
AcDbEntity
  8
0
  6
Continuous
 62
     7
370
    30
100
AcDbLine
 10
16.7544109066
 20
4.8030468706
 30
0.0
 11
16.7544109066
 21
4.8033179306
 31
0.0
  0
LINE
  5
175
330
1F
100
AcDbEntity
  8
0
  6
Continuous
 62
     7
370
    30
100
AcDbLine
 10
16.7544109066
 20
4.8033179306
 30
0.0
 11
16.8803431052
 21
4.8033179306
 31
0.0
  0
LINE
  5
176
330
1F
100
AcDbEntity
  8
0
  6
Continuous
 62
     7
370
    30
100
AcDbLine
 10
10.7544109066
 20
4.8030468706
 30
0.0
 11
10.7544109066
 21
4.8033179306
 31
0.0
  0
LINE
  5
177
330
1F
100
AcDbEntity
  8
0
  6
Continuous
 62
     7
370
    30
100
AcDbLine
 10
10.7544109066
 20
4.8033179306
 30
0.0
 11
10.8803431052
 21
4.8033179306
 31
0.0
  0
LINE
  5
178
330
1F
100
AcDbEntity
  8
0
  6
Continuous
 62
     7
370
    30
100
AcDbLine
 10
22.8024262629
 20
33.6487888816
 30
0.0
 11
22.8024262629
 21
27.3533042379
 31
0.0
  0
LINE
  5
179
330
1F
100
AcDbEntity
  8
0
  6
Continuous
 62
     7
370
    30
100
AcDbLine
 10
22.8024262629
 20
33.6487888816
 30
0.0
 11
22.8374262629
 21
33.6487888816
 31
0.0
  0
LINE
  5
17A
330
1F
100
AcDbEntity
  8
0
  6
Continuous
 62
     7
370
    30
100
AcDbLine
 10
22.8374262629
 20
33.6487888816
 30
0.0
 11
22.8374262629
 21
27.3582735253
 31
0.0
  0
SPLINE
  5
17B
330
1F
100
AcDbEntity
  8
0
  6
Continuous
 62
     7
370
    30
100
AcDbSpline
210
0.0
220
0.0
230
1.0
 70
     8
 71
     3
 72
    11
 73
     7
 74
     0
 42
0.00000001
 43
0.00000001
 40
0.0
 40
0.0
 40
0.0
 40
0.0
 40
0.2499999999999841
 40
0.499999999999999
 40
0.7499999999999807
 40
1.0
 40
1.0
 40
1.0
 40
1.0
 10
22.83742626289271
 20
27.35827352527529
 30
0.0
 10
22.83690015784516
 20
27.35785941799613
 30
0.0
 10
22.83584794775004
 20
27.35703120343781
 30
0.0
 10
22.82775422529075
 20
27.35578888160034
 30
0.0
 10
22.81618515249236
 20
27.35454655976287
 30
0.0
 10
22.80701255942592
 20
27.35371834520454
 30
0.0
 10
22.8024262628927
 20
27.35330423792538
 30
0.0
  0
SPLINE
  5
17C
330
1F
100
AcDbEntity
  8
0
  6
Continuous
 62
     7
370
    30
100
AcDbSpline
210
0.0
220
0.0
230
1.0
 70
     8
 71
     3
 72
    11
 73
     7
 74
     0
 42
0.00000001
 43
0.00000001
 40
0.0
 40
0.0
 40
0.0
 40
0.0
 40
0.2500000000000205
 40
0.5000000000000046
 40
0.7500000000000105
 40
1.0
 40
1.0
 40
1.0
 40
1.0
 10
4.797395550242624
 20
27.35827352527518
 30
0.0
 10
4.797921655290182
 20
27.35785941799602
 30
0.0
 10
4.798973865385301
 20
27.3570312034377
 30
0.0
 10
4.807067587844581
 20
27.35578888160023
 30
0.0
 10
4.818636660642985
 20
27.35454655976275
 30
0.0
 10
4.827809253709422
 20
27.35371834520443
 30
0.0
 10
4.83239555024264
 20
27.35330423792527
 30
0.0
  0
LINE
  5
17D
330
1F
100
AcDbEntity
  8
0
  6
Continuous
 62
     7
370
    30
100
AcDbLine
 10
4.7973955502
 20
27.3582735253
 30
0.0
 11
4.7973955502
 21
33.6487888816
 31
0.0
  0
LINE
  5
17E
330
1F
100
AcDbEntity
  8
0
  6
Continuous
 62
     7
370
    30
100
AcDbLine
 10
4.8323955502
 20
33.6487888816
 30
0.0
 11
4.7973955502
 21
33.6487888816
 31
0.0
  0
LINE
  5
17F
330
1F
100
AcDbEntity
  8
0
  6
Continuous
 62
     7
370
    30
100
AcDbLine
 10
4.8323955502
 20
27.3533042379
 30
0.0
 11
4.8323955502
 21
33.6487888816
 31
0.0
  0
ARC
  5
180
330
1F
100
AcDbEntity
  8
0
  6
Continuous
 62
     7
370
    30
100
AcDbCircle
 10
10.8174109066
 20
30.5552888816
 30
0.0
 40
0.4375000000000038
100
AcDbArc
 50
278.2793756981
 51
81.7206243019
  0
LINE
  5
181
330
1F
100
AcDbEntity
  8
0
  6
Continuous
 62
     7
370
    30
100
AcDbLine
 10
10.8804109066
 20
30.92522912
 30
0.0
 11
10.8804109066
 21
30.98822912
 31
0.0
  0
LINE
  5
182
330
1F
100
AcDbEntity
  8
0
  6
Continuous
 62
     7
370
    30
100
AcDbLine
 10
10.7544109066
 20
30.92522912
 30
0.0
 11
10.8804109066
 21
30.92522912
 31
0.0
  0
LINE
  5
183
330
1F
100
AcDbEntity
  8
0
  6
Continuous
 62
     7
370
    30
100
AcDbLine
 10
10.7544109066
 20
30.98822912
 30
0.0
 11
10.7544109066
 21
30.92522912
 31
0.0
  0
ARC
  5
184
330
1F
100
AcDbEntity
  8
0
  6
Continuous
 62
     7
370
    30
100
AcDbCircle
 10
10.8174109066
 20
30.5552888816
 30
0.0
 40
0.4375000000000026
100
AcDbArc
 50
98.2793756981
 51
261.7206243019
  0
LINE
  5
185
330
1F
100
AcDbEntity
  8
0
  6
Continuous
 62
     7
370
    30
100
AcDbLine
 10
10.7544109066
 20
30.1850775832
 30
0.0
 11
10.7544109066
 21
30.1223486432
 31
0.0
  0
LINE
  5
186
330
1F
100
AcDbEntity
  8
0
  6
Continuous
 62
     7
370
    30
100
AcDbLine
 10
10.8804109066
 20
30.1853487892
 30
0.0
 11
10.7544109066
 21
30.1850775832
 31
0.0
  0
LINE
  5
187
330
1F
100
AcDbEntity
  8
0
  6
Continuous
 62
     7
370
    30
100
AcDbLine
 10
10.8804109066
 20
30.1223486432
 30
0.0
 11
10.8804109066
 21
30.1853487892
 31
0.0
  0
ARC
  5
188
330
1F
100
AcDbEntity
  8
0
  6
Continuous
 62
     7
370
    30
100
AcDbCircle
 10
16.8174109066
 20
30.5552888816
 30
0.0
 40
0.4375000000000031
100
AcDbArc
 50
278.2793756981
 51
81.7206243019
  0
LINE
  5
189
330
1F
100
AcDbEntity
  8
0
  6
Continuous
 62
     7
370
    30
100
AcDbLine
 10
16.8804109066
 20
30.92522912
 30
0.0
 11
16.8804109066
 21
30.98822912
 31
0.0
  0
LINE
  5
18A
330
1F
100
AcDbEntity
  8
0
  6
Continuous
 62
     7
370
    30
100
AcDbLine
 10
16.7544109066
 20
30.92522912
 30
0.0
 11
16.8804109066
 21
30.92522912
 31
0.0
  0
LINE
  5
18B
330
1F
100
AcDbEntity
  8
0
  6
Continuous
 62
     7
370
    30
100
AcDbLine
 10
16.7544109066
 20
30.98822912
 30
0.0
 11
16.7544109066
 21
30.92522912
 31
0.0
  0
ARC
  5
18C
330
1F
100
AcDbEntity
  8
0
  6
Continuous
 62
     7
370
    30
100
AcDbCircle
 10
16.8174109066
 20
30.5552888816
 30
0.0
 40
0.4375000000000036
100
AcDbArc
 50
98.2793756981
 51
261.7206243019
  0
LINE
  5
18D
330
1F
100
AcDbEntity
  8
0
  6
Continuous
 62
     7
370
    30
100
AcDbLine
 10
16.7544109066
 20
30.1850775832
 30
0.0
 11
16.7544109066
 21
30.1223486432
 31
0.0
  0
LINE
  5
18E
330
1F
100
AcDbEntity
  8
0
  6
Continuous
 62
     7
370
    30
100
AcDbLine
 10
16.8804109066
 20
30.1853487892
 30
0.0
 11
16.7544109066
 21
30.1850775832
 31
0.0
  0
LINE
  5
18F
330
1F
100
AcDbEntity
  8
0
  6
Continuous
 62
     7
370
    30
100
AcDbLine
 10
16.8804109066
 20
30.1223486432
 30
0.0
 11
16.8804109066
 21
30.1853487892
 31
0.0
  0
LINE
  5
190
330
1F
100
AcDbEntity
  8
0
  6
Continuous
 62
     7
370
    30
100
AcDbLine
 10
4.8994262629
 20
33.6487888816
 30
0.0
 11
4.8323955502
 21
33.6487888816
 31
0.0
  0
LINE
  5
191
330
1F
100
AcDbEntity
  8
0
  6
Continuous
 62
     7
370
    30
100
AcDbLine
 10
22.7124262629
 20
33.6487888816
 30
0.0
 11
22.8024262629
 21
33.6487888816
 31
0.0
  0
LINE
  5
192
330
1F
100
AcDbEntity
  8
0
  6
Continuous
 62
     7
370
    30
100
AcDbLine
 10
22.8024262629
 20
27.3533042379
 30
0.0
 11
22.7883955502
 21
27.3392735253
 31
0.0
  0
LINE
  5
193
330
1F
100
AcDbEntity
  8
0
  6
Continuous
 62
     7
370
    30
100
AcDbLine
 10
4.8464262629
 20
27.3392735253
 30
0.0
 11
22.7883955502
 21
27.3392735253
 31
0.0
  0
LINE
  5
194
330
1F
100
AcDbEntity
  8
0
  6
Continuous
 62
     7
370
    30
100
AcDbLine
 10
4.8323955502
 20
27.3533042379
 30
0.0
 11
4.8464262629
 21
27.3392735253
 31
0.0
  0
LINE
  5
195
330
1F
100
AcDbEntity
  8
0
  6
Continuous
 62
     7
370
    30
100
AcDbLine
 10
4.8464262629
 20
27.3042735253
 30
0.0
 11
22.7883955502
 21
27.3042735253
 31
0.0
  0
SPLINE
  5
196
330
1F
100
AcDbEntity
  8
0
  6
Continuous
 62
     7
370
    30
100
AcDbSpline
210
0.0
220
0.0
230
1.0
 70
     8
 71
     3
 72
    11
 73
     7
 74
     0
 42
0.00000001
 43
0.00000001
 40
0.0
 40
0.0
 40
0.0
 40
0.0
 40
0.2500000000000015
 40
0.5000000000000093
 40
0.7500000000000169
 40
1.0
 40
1.0
 40
1.0
 40
1.0
 10
4.848910906567665
 20
27.31452478793365
 30
0.0
 10
4.848703852928082
 20
27.31299576990342
 30
0.0
 10
4.84828974564892
 20
27.30993773384295
 30
0.0
 10
4.847668584730188
 20
27.30675680976212
 30
0.0
 10
4.847047423811451
 20
27.30466147693228
 30
0.0
 10
4.84663331653229
 20
27.30440284249421
 30
0.0
 10
4.846426262892708
 20
27.30427352527519
 30
0.0
  0
SPLINE
  5
197
330
1F
100
AcDbEntity
  8
0
  6
Continuous
 62
     7
370
    30
100
AcDbSpline
210
0.0
220
0.0
230
1.0
 70
     8
 71
     3
 72
    11
 73
     7
 74
     0
 42
0.00000001
 43
0.00000001
 40
0.0
 40
0.0
 40
0.0
 40
0.0
 40
0.2499970384563942
 40
0.4999980256375726
 40
0.749999012818808
 40
1.0
 40
1.0
 40
1.0
 40
1.0
 10
22.78591091641018
 20
27.31452471093488
 30
0.0
 10
22.78611796676612
 20
27.31299572111416
 30
0.0
 10
22.78653207074838
 20
27.30993771732217
 30
0.0
 10
22.78715322840738
 20
27.30675680970183
 30
0.0
 10
22.78777438932333
 20
27.30466147694749
 30
0.0
 10
22.78818849660286
 20
27.30440284249936
 30
0.0
 10
22.78839555024263
 20
27.3042735252753
 30
0.0
  0
SPLINE
  5
198
330
1F
100
AcDbEntity
  8
0
  6
Continuous
 62
     7
370
    30
100
AcDbSpline
210
0.0
220
0.0
230
1.0
 70
     8
 71
     3
 72
    11
 73
     7
 74
     0
 42
0.00000001
 43
0.00000001
 40
0.0
 40
0.0
 40
0.0
 40
0.0
 40
0.2500009871811621
 40
0.5000019743623378
 40
0.7500029615435452
 40
0.9999999999999999
 40
0.9999999999999999
 40
0.9999999999999999
 40
0.9999999999999999
 10
4.846426262892708
 20
27.33927352527518
 30
0.0
 10
4.84663331653248
 20
27.33698185002939
 30
0.0
 10
4.847047423812016
 20
27.33239849953781
 30
0.0
 10
4.847668584727938
 20
27.32580466060129
 30
0.0
 10
4.848289742386949
 20
27.31966052126018
 30
0.0
 10
4.848703846369209
 20
27.31623674136216
 30
0.0
 10
4.848910896725144
 20
27.31452486493277
 30
0.0
  0
SPLINE
  5
199
330
1F
100
AcDbEntity
  8
0
  6
Continuous
 62
     7
370
    30
100
AcDbSpline
210
0.0
220
0.0
230
1.0
 70
     8
 71
     3
 72
    11
 73
     7
 74
     0
 42
0.00000001
 43
0.00000001
 40
0.0
 40
0.0
 40
0.0
 40
0.0
 40
0.2500000000000961
 40
0.5000000000000304
 40
0.7500000000000289
 40
1.0
 40
1.0
 40
1.0
 40
1.0
 10
22.78839555024263
 20
27.3392735252753
 30
0.0
 10
22.78818849660304
 20
27.33698185002079
 30
0.0
 10
22.78777438932389
 20
27.33239849951178
 30
0.0
 10
22.78715322840514
 20
27.32580466070596
 30
0.0
 10
22.7865320674864
 20
27.31966048851948
 30
0.0
 10
22.78611796020724
 20
27.316236688129
 30
0.0
 10
22.78591090656766
 20
27.31452478793376
 30
0.0
  0
LINE
  5
19A
330
1F
100
AcDbEntity
  8
0
  6
Continuous
 62
     7
370
    30
100
AcDbLine
 10
4.8464262629
 20
27.3042735253
 30
0.0
 11
4.8464262629
 21
27.3382735253
 31
0.0
  0
LINE
  5
19B
330
1F
100
AcDbEntity
  8
0
  6
Continuous
 62
     7
370
    30
100
AcDbLine
 10
22.7883955502
 20
27.3042735253
 30
0.0
 11
22.7883955502
 21
27.3382735253
 31
0.0
  0
LINE
  5
19C
330
1F
100
AcDbEntity
  8
0
  6
Continuous
 62
     7
370
    30
100
AcDbLine
 10
22.7883955502
 20
27.3042735253
 30
0.0
 11
22.8024262629
 21
27.3042735253
 31
0.0
  0
LINE
  5
19D
330
1F
100
AcDbEntity
  8
0
  6
Continuous
 62
     7
370
    30
100
AcDbLine
 10
22.7883955502
 20
27.3382735253
 30
0.0
 11
22.8024262629
 21
27.3382735253
 31
0.0
  0
LINE
  5
19E
330
1F
100
AcDbEntity
  8
0
  6
Continuous
 62
     7
370
    30
100
AcDbLine
 10
22.8024262629
 20
27.3382735253
 30
0.0
 11
22.8024262629
 21
27.3042735253
 31
0.0
  0
LINE
  5
19F
330
1F
100
AcDbEntity
  8
0
  6
Continuous
 62
     7
370
    30
100
AcDbLine
 10
4.8464262629
 20
27.3042735253
 30
0.0
 11
4.8323955502
 21
27.3042735253
 31
0.0
  0
LINE
  5
1A0
330
1F
100
AcDbEntity
  8
0
  6
Continuous
 62
     7
370
    30
100
AcDbLine
 10
4.8323955502
 20
27.3382735253
 30
0.0
 11
4.8323955502
 21
27.3042735253
 31
0.0
  0
LINE
  5
1A1
330
1F
100
AcDbEntity
  8
0
  6
Continuous
 62
     7
370
    30
100
AcDbLine
 10
4.8464262629
 20
27.3382735253
 30
0.0
 11
4.8323955502
 21
27.3382735253
 31
0.0
  0
SPLINE
  5
1A2
330
1F
100
AcDbEntity
  8
0
  6
Continuous
 62
     7
370
    30
100
AcDbSpline
210
0.0
220
0.0
230
1.0
 70
     8
 71
     3
 72
    11
 73
     7
 74
     0
 42
0.00000001
 43
0.00000001
 40
0.0
 40
0.0
 40
0.0
 40
0.0
 40
0.2500000000000415
 40
0.5000000000000095
 40
0.7500000000000363
 40
1.0
 40
1.0
 40
1.0
 40
1.0
 10
4.832395550242611
 20
27.30427352527519
 30
0.0
 10
4.827809253709393
 20
27.30479963032274
 30
0.0
 10
4.818636660642961
 20
27.30585184041785
 30
0.0
 10
4.807067587844575
 20
27.31394556287713
 30
0.0
 10
4.798973865385292
 20
27.32551463567553
 30
0.0
 10
4.797921655290177
 20
27.33468722874196
 30
0.0
 10
4.797395550242621
 20
27.33927352527517
 30
0.0
  0
LINE
  5
1A3
330
1F
100
AcDbEntity
  8
0
  6
Continuous
 62
     7
370
    30
100
AcDbLine
 10
4.8313955502
 20
27.3392735253
 30
0.0
 11
4.7973955502
 21
27.3392735253
 31
0.0
  0
SPLINE
  5
1A4
330
1F
100
AcDbEntity
  8
0
  6
Continuous
 62
     7
370
    30
100
AcDbSpline
210
0.0
220
0.0
230
1.0
 70
     8
 71
     3
 72
     9
 73
     5
 74
     0
 42
0.00000001
 43
0.00000001
 40
0.0
 40
0.0
 40
0.0
 40
0.0
 40
0.5000000000004017
 40
1.0
 40
1.0
 40
1.0
 40
1.0
 10
4.832395550242623
 20
27.33827352527518
 30
0.0
 10
4.83212533018536
 20
27.33833663855125
 30
0.0
 10
4.831584890070841
 20
27.3384628651034
 30
0.0
 10
4.831458663518697
 20
27.33900330521793
 30
0.0
 10
4.831395550242623
 20
27.33927352527519
 30
0.0
  0
SPLINE
  5
1A5
330
1F
100
AcDbEntity
  8
0
  6
Continuous
 62
     7
370
    30
100
AcDbSpline
210
0.0
220
0.0
230
1.0
 70
     8
 71
     3
 72
    11
 73
     7
 74
     0
 42
0.00000001
 43
0.00000001
 40
0.0
 40
0.0
 40
0.0
 40
0.0
 40
0.2500000000000064
 40
0.5000000000000071
 40
0.7499999999999897
 40
1.0
 40
1.0
 40
1.0
 40
1.0
 10
22.80242626289272
 20
27.3042735252753
 30
0.0
 10
22.80701255942594
 20
27.30479963032285
 30
0.0
 10
22.81618515249237
 20
27.30585184041797
 30
0.0
 10
22.82775422529076
 20
27.31394556287724
 30
0.0
 10
22.83584794775005
 20
27.32551463567563
 30
0.0
 10
22.83690015784516
 20
27.33468722874207
 30
0.0
 10
22.83742626289272
 20
27.33927352527529
 30
0.0
  0
SPLINE
  5
1A6
330
1F
100
AcDbEntity
  8
0
  6
Continuous
 62
     7
370
    30
100
AcDbSpline
210
0.0
220
0.0
230
1.0
 70
     8
 71
     3
 72
     9
 73
     5
 74
     0
 42
0.00000001
 43
0.00000001
 40
0.0
 40
0.0
 40
0.0
 40
0.0
 40
0.5000000000004421
 40
1.0
 40
1.0
 40
1.0
 40
1.0
 10
22.80242626289272
 20
27.3382735252753
 30
0.0
 10
22.80269648294998
 20
27.33833663855137
 30
0.0
 10
22.8032369230645
 20
27.33846286510352
 30
0.0
 10
22.80336314961664
 20
27.33900330521804
 30
0.0
 10
22.80342626289271
 20
27.3392735252753
 30
0.0
  0
LINE
  5
1A7
330
1F
100
AcDbEntity
  8
0
  6
Continuous
 62
     7
370
    30
100
AcDbLine
 10
22.8034262629
 20
27.3392735253
 30
0.0
 11
22.8374262629
 21
27.3392735253
 31
0.0
  0
LINE
  5
1A8
330
1F
100
AcDbEntity
  8
0
  6
Continuous
 62
     7
370
    30
100
AcDbLine
 10
4.7973955502
 20
27.3392735253
 30
0.0
 11
4.7973955502
 21
27.3582735253
 31
0.0
  0
LINE
  5
1A9
330
1F
100
AcDbEntity
  8
0
  6
Continuous
 62
     7
370
    30
100
AcDbLine
 10
4.8313955502
 20
27.3392735253
 30
0.0
 11
4.8313955502
 21
27.3533969906
 31
0.0
  0
LINE
  5
1AA
330
1F
100
AcDbEntity
  8
0
  6
Continuous
 62
     7
370
    30
100
AcDbLine
 10
22.8374262629
 20
27.3392735253
 30
0.0
 11
22.8374262629
 21
27.3582735253
 31
0.0
  0
LINE
  5
1AB
330
1F
100
AcDbEntity
  8
0
  6
Continuous
 62
     7
370
    30
100
AcDbLine
 10
22.8034262629
 20
27.3392735253
 30
0.0
 11
22.8034262629
 21
27.3533969906
 31
0.0
  0
LINE
  5
1AC
330
1F
100
AcDbEntity
  8
0
  6
Continuous
 62
     7
370
    30
100
AcDbLine
 10
10.7544109066
 20
30.1850775832
 30
0.0
 11
10.7544109066
 21
30.1853486432
 31
0.0
  0
LINE
  5
1AD
330
1F
100
AcDbEntity
  8
0
  6
Continuous
 62
     7
370
    30
100
AcDbLine
 10
10.7544109066
 20
30.1853486432
 30
0.0
 11
10.8803431052
 21
30.1853486432
 31
0.0
  0
LINE
  5
1AE
330
1F
100
AcDbEntity
  8
0
  6
Continuous
 62
     7
370
    30
100
AcDbLine
 10
16.7544109066
 20
30.1850775832
 30
0.0
 11
16.7544109066
 21
30.1853486432
 31
0.0
  0
LINE
  5
1AF
330
1F
100
AcDbEntity
  8
0
  6
Continuous
 62
     7
370
    30
100
AcDbLine
 10
16.7544109066
 20
30.1853486432
 30
0.0
 11
16.8803431052
 21
30.1853486432
 31
0.0
  0
LINE
  5
1B0
330
1F
100
AcDbEntity
  8
0
  6
Continuous
 62
     7
370
    30
100
AcDbLine
 10
4.8994262629
 20
2.3262428126
 30
0.0
 11
22.7124262629
 21
2.3262428126
 31
0.0
  0
LINE
  5
1B1
330
1F
100
AcDbEntity
  8
0
  6
Continuous
 62
     7
370
    30
100
AcDbLine
 10
22.7124262629
 20
2.3262428126
 30
0.0
 11
22.7124262629
 21
1.9252428126
 31
0.0
  0
LINE
  5
1B2
330
1F
100
AcDbEntity
  8
0
  6
Continuous
 62
     7
370
    30
100
AcDbLine
 10
22.7124262629
 20
1.9252428126
 30
0.0
 11
4.8994262629
 21
1.9252428126
 31
0.0
  0
LINE
  5
1B3
330
1F
100
AcDbEntity
  8
0
  6
Continuous
 62
     7
370
    30
100
AcDbLine
 10
4.8994262629
 20
2.3262428126
 30
0.0
 11
4.8994262629
 21
1.9252428126
 31
0.0
  0
LINE
  5
1B4
330
1F
100
AcDbEntity
  8
0
  6
Continuous
 62
     7
370
    30
100
AcDbLine
 10
22.7124262629
 20
1.8882428126
 30
0.0
 11
22.7124262629
 21
1.9252428126
 31
0.0
  0
LINE
  5
1B5
330
1F
100
AcDbEntity
  8
0
  6
Continuous
 62
     7
370
    30
100
AcDbLine
 10
22.7124262629
 20
1.8882428126
 30
0.0
 11
4.8994262629
 21
1.8882428126
 31
0.0
  0
LINE
  5
1B6
330
1F
100
AcDbEntity
  8
0
  6
Continuous
 62
     7
370
    30
100
AcDbLine
 10
4.8994262629
 20
1.9252428126
 30
0.0
 11
4.8994262629
 21
1.8882428126
 31
0.0
  0
LINE
  5
1B7
330
1F
100
AcDbEntity
  8
0
  6
Continuous
 62
     7
370
    30
100
AcDbLine
 10
22.7124262629
 20
33.8033042379
 30
0.0
 11
22.7124262629
 21
33.4023042379
 31
0.0
  0
LINE
  5
1B8
330
1F
100
AcDbEntity
  8
0
  6
Continuous
 62
     7
370
    30
100
AcDbLine
 10
4.8994262629
 20
33.4023042379
 30
0.0
 11
22.7124262629
 21
33.4023042379
 31
0.0
  0
LINE
  5
1B9
330
1F
100
AcDbEntity
  8
0
  6
Continuous
 62
     7
370
    30
100
AcDbLine
 10
4.8994262629
 20
33.4023042379
 30
0.0
 11
4.8994262629
 21
33.8033042379
 31
0.0
  0
LINE
  5
1BA
330
1F
100
AcDbEntity
  8
0
  6
Continuous
 62
     7
370
    30
100
AcDbLine
 10
4.8994262629
 20
33.8033042379
 30
0.0
 11
22.7124262629
 21
33.8033042379
 31
0.0
  0
LINE
  5
1BB
330
1F
100
AcDbEntity
  8
0
  6
Continuous
 62
     7
370
    30
100
AcDbLine
 10
4.8994262629
 20
33.8403042379
 30
0.0
 11
4.8994262629
 21
33.8033042379
 31
0.0
  0
LINE
  5
1BC
330
1F
100
AcDbEntity
  8
0
  6
Continuous
 62
     7
370
    30
100
AcDbLine
 10
4.8994262629
 20
33.8403042379
 30
0.0
 11
22.7124262629
 21
33.8403042379
 31
0.0
  0
LINE
  5
1BD
330
1F
100
AcDbEntity
  8
0
  6
Continuous
 62
     7
370
    30
100
AcDbLine
 10
22.7124262629
 20
33.8033042379
 30
0.0
 11
22.7124262629
 21
33.8403042379
 31
0.0
  0
LINE
  5
1BE
330
1F
100
AcDbEntity
  8
0
  6
Continuous
 62
     7
370
    30
100
AcDbLine
 10
4.8994262629
 20
1.9832735253
 30
0.0
 11
4.8904262629
 21
1.9832735253
 31
0.0
  0
LINE
  5
1BF
330
1F
100
AcDbEntity
  8
0
  6
Continuous
 62
     7
370
    30
100
AcDbLine
 10
4.8904262629
 20
1.9832735253
 30
0.0
 11
4.8904262629
 21
2.079758169
 31
0.0
  0
SPLINE
  5
1C0
330
1F
100
AcDbEntity
  8
0
  6
Continuous
 62
     7
370
    30
100
AcDbSpline
210
0.0
220
0.0
230
1.0
 70
     8
 71
     3
 72
     9
 73
     5
 74
     0
 42
0.00000001
 43
0.00000001
 40
0.0
 40
0.0
 40
0.0
 40
0.0
 40
0.4550643560220685
 40
1.0
 40
1.0
 40
1.0
 40
1.0
 10
4.899426262892877
 20
1.9613974348386
 30
0.0
 10
4.897002543704031
 20
1.964429010084215
 30
0.0
 10
4.891676441677418
 20
1.97109087055625
 30
0.0
 10
4.890867230763241
 20
1.979623688586819
 30
0.0
 10
4.89042626289261
 20
1.984273525275253
 30
0.0
  0
LINE
  5
1C1
330
1F
100
AcDbEntity
  8
0
  6
Continuous
 62
     7
370
    30
100
AcDbLine
 10
4.8994262629
 20
33.7452735253
 30
0.0
 11
4.8904262629
 21
33.7452735253
 31
0.0
  0
LINE
  5
1C2
330
1F
100
AcDbEntity
  8
0
  6
Continuous
 62
     7
370
    30
100
AcDbLine
 10
4.8904262629
 20
33.7452735253
 30
0.0
 11
4.8904262629
 21
33.6487888816
 31
0.0
  0
SPLINE
  5
1C3
330
1F
100
AcDbEntity
  8
0
  6
Continuous
 62
     7
370
    30
100
AcDbSpline
210
0.0
220
0.0
230
1.0
 70
     8
 71
     3
 72
     9
 73
     5
 74
     0
 42
0.00000001
 43
0.00000001
 40
0.0
 40
0.0
 40
0.0
 40
0.0
 40
0.5449356439851059
 40
1.0
 40
1.0
 40
1.0
 40
1.0
 10
4.890426262892596
 20
33.74427352527518
 30
0.0
 10
4.89086723076322
 20
33.74892336196362
 30
0.0
 10
4.891676441677377
 20
33.75745617999408
 30
0.0
 10
4.897002543703906
 20
33.76411804046603
 30
0.0
 10
4.899426262892674
 20
33.76714961571156
 30
0.0
  0
LINE
  5
1C4
330
1F
100
AcDbEntity
  8
0
  6
Continuous
 62
     8
370
    30
100
AcDbLine
 10
3.9789339798
 20
12.9805210271
 30
0.0
 11
3.9789339798
 21
13.1243878448
 31
0.0
  0
LINE
  5
1C5
330
1F
100
AcDbEntity
  8
0
  6
Continuous
 62
     8
370
    30
100
AcDbLine
 10
3.9789339798
 20
13.8739992879
 30
0.0
 11
3.9789339798
 21
13.7438208443
 31
0.0
  0
LINE
  5
1C6
330
1F
100
AcDbEntity
  8
0
  6
Continuous
 62
     8
370
    30
100
AcDbLine
 10
3.9789339798
 20
21.8545210271
 30
0.0
 11
3.9789339798
 21
21.9847262063
 31
0.0
  0
LINE
  5
1C7
330
1F
100
AcDbEntity
  8
0
  6
Continuous
 62
     8
370
    30
100
AcDbLine
 10
3.9789339798
 20
22.7479992879
 30
0.0
 11
3.9789339798
 21
22.6043671718
 31
0.0
  0
LINE
  5
1C8
330
1F
100
AcDbEntity
  8
0
  6
Continuous
 62
     8
370
    30
100
AcDbLine
 10
4.1987330845
 20
13.226018512
 30
0.0
 11
4.1987330845
 21
12.8356169351
 31
0.0
  0
LINE
  5
1C9
330
1F
100
AcDbEntity
  8
0
  6
Continuous
 62
     8
370
    30
100
AcDbLine
 10
4.1670887286
 20
12.8362247763
 30
0.0
 11
4.1670887286
 21
13.226018512
 31
0.0
  0
LINE
  5
1CA
330
1F
100
AcDbEntity
  8
0
  6
Continuous
 62
     8
370
    30
100
AcDbLine
 10
4.1987330845
 20
14.0177508556
 30
0.0
 11
4.1987330845
 21
13.6688336251
 31
0.0
  0
LINE
  5
1CB
330
1F
100
AcDbEntity
  8
0
  6
Continuous
 62
     8
370
    30
100
AcDbLine
 10
4.1670887286
 20
13.6688336251
 30
0.0
 11
4.1670887286
 21
14.0190593018
 31
0.0
  0
LINE
  5
1CC
330
1F
100
AcDbEntity
  8
0
  6
Continuous
 62
     8
370
    30
100
AcDbLine
 10
4.1987330845
 20
22.0597134255
 30
0.0
 11
4.1987330845
 21
21.7096169351
 31
0.0
  0
LINE
  5
1CD
330
1F
100
AcDbEntity
  8
0
  6
Continuous
 62
     8
370
    30
100
AcDbLine
 10
4.1670887286
 20
21.7102247763
 30
0.0
 11
4.1670887286
 21
22.0597134255
 31
0.0
  0
LINE
  5
1CE
330
1F
100
AcDbEntity
  8
0
  6
Continuous
 62
     8
370
    30
100
AcDbLine
 10
4.1987330845
 20
22.8917508556
 30
0.0
 11
4.1987330845
 21
22.5025285386
 31
0.0
  0
LINE
  5
1CF
330
1F
100
AcDbEntity
  8
0
  6
Continuous
 62
     8
370
    30
100
AcDbLine
 10
4.1670887286
 20
22.5025285386
 30
0.0
 11
4.1670887286
 21
22.8930593018
 31
0.0
  0
LINE
  5
1D0
330
1F
100
AcDbEntity
  8
0
  6
Continuous
 62
     8
370
    30
100
AcDbLine
 10
22.8364317011
 20
8.3942735253
 30
0.0
 11
38.4659109066
 21
8.3942735253
 31
0.0
  0
LINE
  5
1D1
330
1F
100
AcDbEntity
  8
0
  6
Continuous
 62
     8
370
    30
100
AcDbLine
 10
38.4659109066
 20
27.3792735253
 30
0.0
 11
22.8374262629
 21
27.3792735253
 31
0.0
  0
LINE
  5
1D2
330
1F
100
AcDbEntity
  8
0
  6
Continuous
 62
     8
370
    30
100
AcDbLine
 10
4.8559109066
 20
27.3042735253
 30
0.0
 11
4.8559109066
 21
8.4242735253
 31
0.0
  0
LINE
  5
1D3
330
1F
100
AcDbEntity
  8
FORMAT
100
AcDbLine
 10
45.5412618883
 20
18.7819032776
 30
0.0
 11
45.5412618883
 21
16.6674788433
 31
0.0
  0
LINE
  5
1D4
330
1F
100
AcDbEntity
  8
FORMAT
100
AcDbLine
 10
45.5412618883
 20
16.6674788433
 30
0.0
 11
48.4388064833
 21
16.6674788433
 31
0.0
  0
LINE
  5
1D5
330
1F
100
AcDbEntity
  8
FORMAT
100
AcDbLine
 10
48.4388064833
 20
16.6674788433
 30
0.0
 11
48.4388064833
 21
14.9054584815
 31
0.0
  0
LINE
  5
1D6
330
1F
100
AcDbEntity
  8
FORMAT
100
AcDbLine
 10
48.4388064833
 20
14.9054584815
 30
0.0
 11
51.2580390623
 21
17.7246910604
 31
0.0
  0
LINE
  5
1D7
330
1F
100
AcDbEntity
  8
FORMAT
100
AcDbLine
 10
51.2580390623
 20
17.7246910604
 30
0.0
 11
48.4388064833
 21
20.5439236394
 31
0.0
  0
LINE
  5
1D8
330
1F
100
AcDbEntity
  8
FORMAT
100
AcDbLine
 10
48.4388064833
 20
20.5439236394
 30
0.0
 11
48.4388064833
 21
18.7819032776
 31
0.0
  0
LINE
  5
1D9
330
1F
100
AcDbEntity
  8
FORMAT
100
AcDbLine
 10
48.4388064833
 20
18.7819032776
 30
0.0
 11
45.5412618883
 21
18.7819032776
 31
0.0
  0
ENDSEC
  0
SECTION
  2
OBJECTS
  0
DICTIONARY
  5
C
330
0
100
AcDbDictionary
281
     1
  3
ACAD_GROUP
350
D
  3
ACAD_LAYOUT
350
1A
  3
ACAD_MLINESTYLE
350
17
  3
ACAD_PLOTSETTINGS
350
19
  3
ACAD_PLOTSTYLENAME
350
E
  3
ACAD_SCALELIST
350
4C
  3
AcDbVariableDictionary
350
1DA
  0
DICTIONARY
  5
D
102
{ACAD_REACTORS
330
C
102
}
330
C
100
AcDbDictionary
281
     1
  0
DICTIONARY
  5
1A
102
{ACAD_REACTORS
330
C
102
}
330
C
100
AcDbDictionary
281
     1
  3
Layout1
350
1E
  3
Layout2
350
26
  3
Model
350
22
  0
DICTIONARY
  5
17
102
{ACAD_REACTORS
330
C
102
}
330
C
100
AcDbDictionary
281
     1
  3
Standard
350
18
  0
DICTIONARY
  5
19
102
{ACAD_REACTORS
330
C
102
}
330
C
100
AcDbDictionary
281
     1
  0
ACDBDICTIONARYWDFLT
  5
E
102
{ACAD_REACTORS
330
C
102
}
330
C
100
AcDbDictionary
281
     1
  3
Normal
350
F
100
AcDbDictionaryWithDefault
340
F
  0
DICTIONARY
  5
4C
102
{ACAD_REACTORS
330
C
102
}
330
C
100
AcDbDictionary
281
     1
  3
A0
350
4D
  3
A1
350
4E
  3
A2
350
4F
  3
A3
350
50
  3
A4
350
51
  3
A5
350
52
  3
A6
350
53
  3
A7
350
54
  3
A8
350
55
  3
A9
350
56
  3
B0
350
57
  3
B1
350
58
  3
B2
350
59
  3
B3
350
5A
  3
B4
350
5B
  3
B5
350
5C
  3
B6
350
5D
  3
B7
350
5E
  3
B8
350
5F
  3
B9
350
60
  3
C0
350
61
  3
C1
350
62
  3
C2
350
63
  3
C3
350
64
  3
C4
350
65
  3
C5
350
66
  3
C6
350
67
  3
C7
350
68
  3
C8
350
69
  3
C9
350
6A
  3
D0
350
6B
  3
D1
350
6C
  3
D2
350
6D
  0
DICTIONARY
  5
1DA
102
{ACAD_REACTORS
330
C
102
}
330
C
100
AcDbDictionary
281
     1
  3
CANNOSCALE
350
1DB
  0
LAYOUT
  5
1E
102
{ACAD_REACTORS
330
1A
102
}
330
1A
100
AcDbPlotSettings
  1

  2
none_device
  4

  6

 40
0.0
 41
0.0
 42
0.0
 43
0.0
 44
0.0
 45
0.0
 46
0.0
 47
0.0
 48
0.0
 49
0.0
140
0.0
141
0.0
142
1.0
143
1.0
 70
   688
 72
     0
 73
     0
 74
     5
  7

 75
    16
147
1.0
148
0.0
149
0.0
100
AcDbLayout
  1
Layout1
 70
     1
 71
     1
 10
0.0
 20
0.0
 11
12.0
 21
9.0
 12
0.0
 22
0.0
 32
0.0
 14
1.0000000000E+20
 24
1.0000000000E+20
 34
1.0000000000E+20
 15
-1.0000000000E+20
 25
-1.0000000000E+20
 35
-1.0000000000E+20
146
0.0
 13
0.0
 23
0.0
 33
0.0
 16
1.0
 26
0.0
 36
0.0
 17
0.0
 27
1.0
 37
0.0
 76
     0
330
1B
  0
LAYOUT
  5
26
102
{ACAD_REACTORS
330
1A
102
}
330
1A
100
AcDbPlotSettings
  1

  2
none_device
  4

  6

 40
0.0
 41
0.0
 42
0.0
 43
0.0
 44
0.0
 45
0.0
 46
0.0
 47
0.0
 48
0.0
 49
0.0
140
0.0
141
0.0
142
1.0
143
1.0
 70
   688
 72
     0
 73
     0
 74
     5
  7

 75
    16
147
1.0
148
0.0
149
0.0
100
AcDbLayout
  1
Layout2
 70
     1
 71
     2
 10
0.0
 20
0.0
 11
0.0
 21
0.0
 12
0.0
 22
0.0
 32
0.0
 14
0.0
 24
0.0
 34
0.0
 15
0.0
 25
0.0
 35
0.0
146
0.0
 13
0.0
 23
0.0
 33
0.0
 16
1.0
 26
0.0
 36
0.0
 17
0.0
 27
1.0
 37
0.0
 76
     0
330
23
  0
LAYOUT
  5
22
102
{ACAD_REACTORS
330
1A
102
}
330
1A
100
AcDbPlotSettings
  1

  2
none_device
  4

  6

 40
0.0
 41
0.0
 42
0.0
 43
0.0
 44
0.0
 45
0.0
 46
0.0
 47
0.0
 48
0.0
 49
0.0
140
0.0
141
0.0
142
1.0
143
1.0
 70
  1712
 72
     0
 73
     0
 74
     0
  7

 75
     0
147
1.0
148
0.0
149
0.0
100
AcDbLayout
  1
Model
 70
     1
 71
     0
 10
0.0
 20
0.0
 11
55.0
 21
35.0
 12
0.0
 22
0.0
 32
0.0
 14
0.0
 24
0.0
 34
0.0
 15
55.0
 25
35.0
 35
0.0
146
0.0
 13
0.0
 23
0.0
 33
0.0
 16
1.0
 26
0.0
 36
0.0
 17
0.0
 27
1.0
 37
0.0
 76
     0
330
1F
331
29
  0
MLINESTYLE
  5
18
102
{ACAD_REACTORS
330
17
102
}
330
17
100
AcDbMlineStyle
  2
Standard
 70
     0
  3

 62
   256
 51
90.0
 52
90.0
 71
     2
 49
0.5
 62
   256
  6
BYLAYER
 49
-0.5
 62
   256
  6
BYLAYER
  0
ACDBPLACEHOLDER
  5
F
102
{ACAD_REACTORS
330
E
102
}
330
E
  0
SCALE
  5
4D
102
{ACAD_REACTORS
330
4C
102
}
330
4C
100
AcDbScale
 70
     0
300
1:1
140
1.0
141
1.0
290
     1
  0
SCALE
  5
4E
102
{ACAD_REACTORS
330
4C
102
}
330
4C
100
AcDbScale
 70
     0
300
1:2
140
1.0
141
2.0
290
     0
  0
SCALE
  5
4F
102
{ACAD_REACTORS
330
4C
102
}
330
4C
100
AcDbScale
 70
     0
300
1:4
140
1.0
141
4.0
290
     0
  0
SCALE
  5
50
102
{ACAD_REACTORS
330
4C
102
}
330
4C
100
AcDbScale
 70
     0
300
1:5
140
1.0
141
5.0
290
     0
  0
SCALE
  5
51
102
{ACAD_REACTORS
330
4C
102
}
330
4C
100
AcDbScale
 70
     0
300
1:8
140
1.0
141
8.0
290
     0
  0
SCALE
  5
52
102
{ACAD_REACTORS
330
4C
102
}
330
4C
100
AcDbScale
 70
     0
300
1:10
140
1.0
141
10.0
290
     0
  0
SCALE
  5
53
102
{ACAD_REACTORS
330
4C
102
}
330
4C
100
AcDbScale
 70
     0
300
1:16
140
1.0
141
16.0
290
     0
  0
SCALE
  5
54
102
{ACAD_REACTORS
330
4C
102
}
330
4C
100
AcDbScale
 70
     0
300
1:20
140
1.0
141
20.0
290
     0
  0
SCALE
  5
55
102
{ACAD_REACTORS
330
4C
102
}
330
4C
100
AcDbScale
 70
     0
300
1:30
140
1.0
141
30.0
290
     0
  0
SCALE
  5
56
102
{ACAD_REACTORS
330
4C
102
}
330
4C
100
AcDbScale
 70
     0
300
1:40
140
1.0
141
40.0
290
     0
  0
SCALE
  5
57
102
{ACAD_REACTORS
330
4C
102
}
330
4C
100
AcDbScale
 70
     0
300
1:50
140
1.0
141
50.0
290
     0
  0
SCALE
  5
58
102
{ACAD_REACTORS
330
4C
102
}
330
4C
100
AcDbScale
 70
     0
300
1:100
140
1.0
141
100.0
290
     0
  0
SCALE
  5
59
102
{ACAD_REACTORS
330
4C
102
}
330
4C
100
AcDbScale
 70
     0
300
2:1
140
2.0
141
1.0
290
     0
  0
SCALE
  5
5A
102
{ACAD_REACTORS
330
4C
102
}
330
4C
100
AcDbScale
 70
     0
300
4:1
140
4.0
141
1.0
290
     0
  0
SCALE
  5
5B
102
{ACAD_REACTORS
330
4C
102
}
330
4C
100
AcDbScale
 70
     0
300
8:1
140
8.0
141
1.0
290
     0
  0
SCALE
  5
5C
102
{ACAD_REACTORS
330
4C
102
}
330
4C
100
AcDbScale
 70
     0
300
10:1
140
10.0
141
1.0
290
     0
  0
SCALE
  5
5D
102
{ACAD_REACTORS
330
4C
102
}
330
4C
100
AcDbScale
 70
     0
300
100:1
140
100.0
141
1.0
290
     0
  0
SCALE
  5
5E
102
{ACAD_REACTORS
330
4C
102
}
330
4C
100
AcDbScale
 70
     0
300
1/128" = 1'-0"
140
0.0078125
141
12.0
290
     0
  0
SCALE
  5
5F
102
{ACAD_REACTORS
330
4C
102
}
330
4C
100
AcDbScale
 70
     0
300
1/64" = 1'-0"
140
0.015625
141
12.0
290
     0
  0
SCALE
  5
60
102
{ACAD_REACTORS
330
4C
102
}
330
4C
100
AcDbScale
 70
     0
300
1/32" = 1'-0"
140
0.03125
141
12.0
290
     0
  0
SCALE
  5
61
102
{ACAD_REACTORS
330
4C
102
}
330
4C
100
AcDbScale
 70
     0
300
1/16" = 1'-0"
140
0.0625
141
12.0
290
     0
  0
SCALE
  5
62
102
{ACAD_REACTORS
330
4C
102
}
330
4C
100
AcDbScale
 70
     0
300
3/32" = 1'-0"
140
0.09375
141
12.0
290
     0
  0
SCALE
  5
63
102
{ACAD_REACTORS
330
4C
102
}
330
4C
100
AcDbScale
 70
     0
300
1/8" = 1'-0"
140
0.125
141
12.0
290
     0
  0
SCALE
  5
64
102
{ACAD_REACTORS
330
4C
102
}
330
4C
100
AcDbScale
 70
     0
300
3/16" = 1'-0"
140
0.1875
141
12.0
290
     0
  0
SCALE
  5
65
102
{ACAD_REACTORS
330
4C
102
}
330
4C
100
AcDbScale
 70
     0
300
1/4" = 1'-0"
140
0.25
141
12.0
290
     0
  0
SCALE
  5
66
102
{ACAD_REACTORS
330
4C
102
}
330
4C
100
AcDbScale
 70
     0
300
3/8" = 1'-0"
140
0.375
141
12.0
290
     0
  0
SCALE
  5
67
102
{ACAD_REACTORS
330
4C
102
}
330
4C
100
AcDbScale
 70
     0
300
1/2" = 1'-0"
140
0.5
141
12.0
290
     0
  0
SCALE
  5
68
102
{ACAD_REACTORS
330
4C
102
}
330
4C
100
AcDbScale
 70
     0
300
3/4" = 1'-0"
140
0.75
141
12.0
290
     0
  0
SCALE
  5
69
102
{ACAD_REACTORS
330
4C
102
}
330
4C
100
AcDbScale
 70
     0
300
1" = 1'-0"
140
1.0
141
12.0
290
     0
  0
SCALE
  5
6A
102
{ACAD_REACTORS
330
4C
102
}
330
4C
100
AcDbScale
 70
     0
300
1-1/2" = 1'-0"
140
1.5
141
12.0
290
     0
  0
SCALE
  5
6B
102
{ACAD_REACTORS
330
4C
102
}
330
4C
100
AcDbScale
 70
     0
300
3" = 1'-0"
140
3.0
141
12.0
290
     0
  0
SCALE
  5
6C
102
{ACAD_REACTORS
330
4C
102
}
330
4C
100
AcDbScale
 70
     0
300
6" = 1'-0"
140
6.0
141
12.0
290
     0
  0
SCALE
  5
6D
102
{ACAD_REACTORS
330
4C
102
}
330
4C
100
AcDbScale
 70
     0
300
1'-0" = 1'-0"
140
12.0
141
12.0
290
     0
  0
DICTIONARYVAR
  5
1DB
102
{ACAD_REACTORS
330
1DA
102
}
330
1DA
100
DictionaryVariables
280
     0
  1
1:1
  0
ENDSEC
  0
EOF
